Videoleksjoner

Foggy Mountain Breakdown [Earl Scruggs]

Loading the player...
  • Nivå: Middels 6/10
  • Lengde: 14.14 min.
  • Lærer: Magnus Wiik
  • Sjanger: Country
  • Opplastet: 05.07.2017
  • Instrument: Banjo


(Denne tjenesten tilbys av onlinegitar.no. Musikken er gjengitt med tillatelse fra TONO. Uautorisert lenking, videreføring eller kopiering er ulovlig.)

Besifring/tab  

Foggy Mountain Breakdown [Earl Scruggs]

     Opptakt 
D|-------0---0---0---|----0----0------0----|
H|-------0---1---2---|-2h3--2h3----3-------|
G|-------------------|---------------------|
D|-------------------|---------------------|
G|-------------------|-----------0-------0-|


D|----0----0-----0---|----0----0---------0---|
H|-2h3--2h3----3-----|-2h3--2h3----0---------|
G|-------------------|---------------3p2---0-|
D|-------------------|-----------------------|
G|-----------0-----0-|-----------0-----------|


D|-------0-----------|-----2---------------|
H|-------------------|-----------0---------|
G|----0-----0--------|-----------------0---|
D|--------------1----|-2-------------------|
G|-0-----------------|---------------------|


D|-----2---2---------|---0------0-------0---|
H|---0-------0-----0-|----------------------|
G|-------------------|-0------2/4--0------0-|
D|-2------------2----|----------------2-----|
G|-------0-----------|-----0----------------|


D|-------0-----------|-----2---------------|
H|-------------------|-----------0---------|
G|----0-----0--------|-----------------0---|
D|--------------1----|-2-------------------|
G|-0-----------------|---------------------|


D|-----2---2---------|---0------0-------0---|
H|---0-------0-----0-|----------------------|
G|-------------------|-0------2/4--0------0-|
D|-2------------2----|----------------2-----|
G|-------0-----------|-----0----------------|


D|---------0-------0-|----0--0-----0-----2---|
H|-------------------|----------2h3----3-----|
G|-0---2/3----0------|----2--2---------------|
D|---------------2---|-0---------------------|
G|-------------------|---------------0-----0-|


D|-0--------0---0----|---0--------0--------|
H|----0--------------|---------------------|
G|------3p2---0------|-2/3--0--------0-----|
D|-------------------|---------2-----------|
G|-----------------0-|---------------------|

Foggy Mountain Breakdown [Earl Scruggs]


     Opptakt 
D|-------0---0---0---|----0----0------0----|
H|-------0---1---2---|-2h3--2h3----3-------|
G|-------------------|---------------------|
D|-------------------|---------------------|
G|-------------------|-----------0-------0-|


D|----0----0-----0---|----0----0---------0---|
H|-2h3--2h3----3-----|-2h3--2h3----0---------|
G|-------------------|---------------3p2---0-|
D|-------------------|-----------------------|
G|-----------0-----0-|-----------0-----------|


D|-------0-----------|-----2---------------|
H|-------------------|-----------0---------|
G|----0-----0--------|-----------------0---|
D|--------------1----|-2-------------------|
G|-0-----------------|---------------------|


D|-----2---2---------|---0------0-------0---|
H|---0-------0-----0-|----------------------|
G|-------------------|-0------2/4--0------0-|
D|-2------------2----|----------------2-----|
G|-------0-----------|-----0----------------|


D|-------0-----------|-----2---------------|
H|-------------------|-----------0---------|
G|----0-----0--------|-----------------0---|
D|--------------1----|-2-------------------|
G|-0-----------------|---------------------|


D|-----2---2---------|---0------0-------0---|
H|---0-------0-----0-|----------------------|
G|-------------------|-0------2/4--0------0-|
D|-2------------2----|----------------2-----|
G|-------0-----------|-----0----------------|


D|---------0-------0-|----0--0-----0-----2---|
H|-------------------|----------2h3----3-----|
G|-0---2/3----0------|----2--2---------------|
D|---------------2---|-0---------------------|
G|-------------------|---------------0-----0-|


D|-0--------0---0----|---0--------0--------|
H|----0--------------|---------------------|
G|------3p2---0------|-2/3--0--------0-----|
D|-------------------|---------2-----------|
G|-----------------0-|---------------------|
×
 

Relaterte videoer

 

Flere videoer av Magnus Wiik

 

YouTube