Videoleksjoner

JAILHOUSE ROCK

 Artist/band: Elvis Presley  |  Lærer: Anders Nærø  |   Rock31.03-17

Loading the player...

   Gratis Nivå: 5/10

VIDEOINFO

  • Video: Jailhouse Rock
  • Artist/band: Elvis Presley
  • Lærer: Anders Nærø
  • Instrument: Elektrisk
  • Nivå: Middels 5/10
  • Lengde: 12.13 min.
  • Sjanger: Rock
  • Opplastet: 31.03.2017

(Denne tjenesten tilbys av onlinegitar.no. Musikken er gjengitt med tillatelse fra TONO. Uautorisert lenking, videreføring eller kopiering er ulovlig.)

×
    • Anders Nærø

    • Funk, pop, blues
    • Anders har studert ved jazzlinja i Trondheim. Han har spesialisert seg innen funksjangeren og er delaktig i flere funk-prosjekter, deriblant Gjerstad Funk- og Fiskarlag. Han har også spilt med artister som Admiral P, Nico D, Sisi og Marianne Pentha.

×



BESIFRING

BACKING

RELATERT

LÆRER

VIDEO  

[Jerry Leiber / Mike Stoller]


 INTRO/VERS:  
e|------------------------|-------------------------|
H|----------------7-------|-8-----------------------|
G|*---------------7-------|-8----------------------*| 
D|*---------------7-------|-8----------------------*|
A|----------------5-------|-6-----------------------|
E|------------------------|-------------------------|
   1     2     3     4      1     2     3     4            



  REFRENG/KOMP UNDER SOLO
e|------------------------|------------------------|
H|------------------------|------------------------|
G|------------------------|------------------------| 
D|------------------------|------------------------|
A|-------------6--6--8--6-|-------------6--6--8--6-|
E|-4--4--8--8-------------|-4--4--8--8-------------|
       

e|---------------------------|---------------------------|
H|---------------------------|---------------------------|
G|---------------------------|---------------------------| 
D|---------------8--8--10--8-|---------------8--8--10--8-|
A|-6--6--10--10--------------|-6--6--10--10--------------|
E|---------------------------|---------------------------|


e|---------------------------|------------------------|
H|---------------------------|------------------------|
G|---------------------------|------------------------| 
D|---------------------------|------------------------|
A|---------------8--8--10--8-|-------------6--6--8--6-|
E|-6--6--10--10--------------|-4--4--8--8-------------|

                                               Tilbake til intro
e|---------------------------|-------------------------|------
H|---------------------------|------------------7------|-8----
G|---------------------------|------------------7------|-8---- 
D|---------------8--8--10--8-|---------------8--7------|-8----
A|-6--6--10--10--------------|-6--6--10--10-----5------|-6----
E|---------------------------|-------------------------|------



  SOLO
e|----11-11-11----11-11-11|----11-11-11----11-11----|
H|----11-11-11----11-11-11|----11-11-11----11-11----|
G|------------------------|-------------------------| 
D|------------------------|-------------------------|
A|------------------------|-------------------------|
E|------------------------|-------------------------| 
   *     *     *     *      *     *     *     *  


e|----------------------------|----------------------------|
H|----9------9------9---9---9-|----9---9---9-----9---9-----|
G|---b11----b11----b11-b11-b11|---b11-b11-b11---b11-b11----| 
D|----------------------------|--------------------------7/|
A|----------------------------|--------------------------7/|
E|----------------------------|----------------------------|
   *      *      *      *       *      *      *      * 


e|------------------------|------------------------|
H|------------------------|------------------------|
G|------------------------|------------------------| 
D|-8---8-8-8-------8-8--5/|-6---6-6-6-------6-6----|
A|-8---8-8-8-------8-8--5/|-6---6-6-6-------6-6----|
E|------------------------|------------------------|
   *     *     *     *      *     *     *     * 
   
                                           Til vers 4
e|------------------------|-----------------------|------
H|------------------------|----------------7------|-8----
G|------------------------|----------------7------|-8---- 
D|-5---5-6---6-5---5-6---6|-5---5-5---5----7------|-8----
A|-6-----6-----6-----6----|-6-----6--------5------|-6----
E|------------------------|-----------------------|------    
   *     *     *     *      *     *     *     *     *



Jailhouse Rock

Vers 1:
The warden threw a party in the county jail
The prison band was there and they began to wail
The band was jumpin' and the joint began to swing
You should've heard those knocked out jailbirds sing

Refreng:
Let's rock, everybody, let's rock
Everybody in the whole cell block
Was dancing to the jailhouse rock

Vers 2:
Spider Murphy played the tenor saxophone
Little Joe was blowin' on the slide trombone
The drummer boy from Illinois went crash, boom, bang
The whole rhythm section was the Purple Gang

Refreng:
Let's rock, everybody, let's rock
Everybody in the whole cell block
Was dancing to the jailhouse rock

Vers 3:
Number forty-seven said to number three
 you the cutest jailbird I ever did see
I sure would be delighted with your company
come on and do the jailhouse rock with me

Refreng:
Let's rock, everybody, let's rock
Everybody in the whole cell block
Was dancing to the jailhouse rock
Rock, rock, r...

Solo…..

Vers 4:
Sad Sack was a sittin' on a block of stone
Way over in the corner weepin' all alone
The warden said,"Hey, buddy, don't you be no square 
If you can't find a partner use a wooden chair"

Refreng:
Let's rock, everybody, let's rock
Everybody in the whole cell block
Was dancing to the jailhouse rock

Vers 5:
Shifty Henry said to Bugs,"For heaven's sake
No one's looking, now's our chance to make a break"
Bugsy turned to shifty and he said,"Nix nix 
I wanna stick around a while and get my kicks"

Refreng:
Let's rock, everybody, let's rock
Everybody in the whole cell block
Was dancing to the jailhouse rock

Outro:
Dancing to the jailhouse rock
Dancing to the jailhouse rock
Dancing to the jailhouse rock
Dancing to the jailhouse rock

Jailhouse Rock - Elvis Presley


[Jerry Leiber / Mike Stoller]


 INTRO/VERS:  
e|------------------------|-------------------------|
H|----------------7-------|-8-----------------------|
G|*---------------7-------|-8----------------------*| 
D|*---------------7-------|-8----------------------*|
A|----------------5-------|-6-----------------------|
E|------------------------|-------------------------|
   1     2     3     4      1     2     3     4            



  REFRENG/KOMP UNDER SOLO
e|------------------------|------------------------|
H|------------------------|------------------------|
G|------------------------|------------------------| 
D|------------------------|------------------------|
A|-------------6--6--8--6-|-------------6--6--8--6-|
E|-4--4--8--8-------------|-4--4--8--8-------------|
       

e|---------------------------|---------------------------|
H|---------------------------|---------------------------|
G|---------------------------|---------------------------| 
D|---------------8--8--10--8-|---------------8--8--10--8-|
A|-6--6--10--10--------------|-6--6--10--10--------------|
E|---------------------------|---------------------------|


e|---------------------------|------------------------|
H|---------------------------|------------------------|
G|---------------------------|------------------------| 
D|---------------------------|------------------------|
A|---------------8--8--10--8-|-------------6--6--8--6-|
E|-6--6--10--10--------------|-4--4--8--8-------------|

                                               Tilbake til intro
e|---------------------------|-------------------------|------
H|---------------------------|------------------7------|-8----
G|---------------------------|------------------7------|-8---- 
D|---------------8--8--10--8-|---------------8--7------|-8----
A|-6--6--10--10--------------|-6--6--10--10-----5------|-6----
E|---------------------------|-------------------------|------



  SOLO
e|----11-11-11----11-11-11|----11-11-11----11-11----|
H|----11-11-11----11-11-11|----11-11-11----11-11----|
G|------------------------|-------------------------| 
D|------------------------|-------------------------|
A|------------------------|-------------------------|
E|------------------------|-------------------------| 
   *     *     *     *      *     *     *     *  


e|----------------------------|----------------------------|
H|----9------9------9---9---9-|----9---9---9-----9---9-----|
G|---b11----b11----b11-b11-b11|---b11-b11-b11---b11-b11----| 
D|----------------------------|--------------------------7/|
A|----------------------------|--------------------------7/|
E|----------------------------|----------------------------|
   *      *      *      *       *      *      *      * 


e|------------------------|------------------------|
H|------------------------|------------------------|
G|------------------------|------------------------| 
D|-8---8-8-8-------8-8--5/|-6---6-6-6-------6-6----|
A|-8---8-8-8-------8-8--5/|-6---6-6-6-------6-6----|
E|------------------------|------------------------|
   *     *     *     *      *     *     *     * 
   
                                           Til vers 4
e|------------------------|-----------------------|------
H|------------------------|----------------7------|-8----
G|------------------------|----------------7------|-8---- 
D|-5---5-6---6-5---5-6---6|-5---5-5---5----7------|-8----
A|-6-----6-----6-----6----|-6-----6--------5------|-6----
E|------------------------|-----------------------|------    
   *     *     *     *      *     *     *     *     *



Jailhouse Rock

Vers 1:
The warden threw a party in the county jail
The prison band was there and they began to wail
The band was jumpin' and the joint began to swing
You should've heard those knocked out jailbirds sing

Refreng:
Let's rock, everybody, let's rock
Everybody in the whole cell block
Was dancing to the jailhouse rock

Vers 2:
Spider Murphy played the tenor saxophone
Little Joe was blowin' on the slide trombone
The drummer boy from Illinois went crash, boom, bang
The whole rhythm section was the Purple Gang

Refreng:
Let's rock, everybody, let's rock
Everybody in the whole cell block
Was dancing to the jailhouse rock

Vers 3:
Number forty-seven said to number three
 you the cutest jailbird I ever did see
I sure would be delighted with your company
come on and do the jailhouse rock with me

Refreng:
Let's rock, everybody, let's rock
Everybody in the whole cell block
Was dancing to the jailhouse rock
Rock, rock, r...

Solo…..

Vers 4:
Sad Sack was a sittin' on a block of stone
Way over in the corner weepin' all alone
The warden said,"Hey, buddy, don't you be no square 
If you can't find a partner use a wooden chair"

Refreng:
Let's rock, everybody, let's rock
Everybody in the whole cell block
Was dancing to the jailhouse rock

Vers 5:
Shifty Henry said to Bugs,"For heaven's sake
No one's looking, now's our chance to make a break"
Bugsy turned to shifty and he said,"Nix nix 
I wanna stick around a while and get my kicks"

Refreng:
Let's rock, everybody, let's rock
Everybody in the whole cell block
Was dancing to the jailhouse rock

Outro:
Dancing to the jailhouse rock
Dancing to the jailhouse rock
Dancing to the jailhouse rock
Dancing to the jailhouse rock
×
 

Prøv å spille sammen med et backingtrack:

 
 

Flere videoleksjoner med Anders Nærø: