Videoleksjoner

Three Little Birds [Bob Marley & the Wailers]

Loading the player...
  • Nivå: Middels 5/10
  • Lengde: 13.36 min.
  • Lærer: Anders Nærø
  • Sjanger: Funk-reggae
  • Opplastet: 14.06.2017
  • Instrument: Elektrisk


(Denne tjenesten tilbys av onlinegitar.no. Musikken er gjengitt med tillatelse fra TONO. Uautorisert lenking, videreføring eller kopiering er ulovlig.)

Besifring/tab  

Three Little Birds [Bob Marley & the Wailers]

INTRO: A


REFRENG:
      A
Don't worry, about a thing
       D                              A 
Cause' every little thing, gonna be alright
              A 
Singin' don't worry, about a thing
       D                              A
Cause' every little thing, gonna be alright


VERS 1:
             A
Rise up this mornin'
               E
Smile with the rising sun
             A                 D
Three little birds perch by my doorstep
        A 
Singin' sweet songs
           E
of melody pure and true
       D                          A
sayin', this is my message to you-oo-oo


REFRENG:
              A
Singin' don't worry, about a thing
       D                                   A
Cause' every little thing, (is) gonna be alright
              A 
Singin' don't worry, (don't worry) about a thing
       D                              A
Cause' every little thing, gonna be alright


VERS 2:
             A
Rise up this mornin'
               E
Smile with the rising sun
             A                 D
Three little birds perch by my doorstep
        A 
Singin' sweet songs
           E
of melodys pure and true
       D                          A
sayin', this is my message to you-oo-oo


REFRENG;
      A
Don't worry, about a thing
       D                              A 
Cause' every little thing, gonna be alright
              A 
Singin' don't worry, about a thing
       D                              A
Cause' every little thing, gonna be alright


SOLO: A - E - A - D - A - E - D - A


REFRENG:
      A
Don't worry, about a thing
       D                              A 
Cause' every little thing, gonna be alright
              A 
Singin' don't worry, about a thing
       D                              A
Cause' every little thing, gonna be alright
      A
Don't worry, about a thing
       D                              A 
Cause' every little thing, gonna be alright



-----------------------

INTRO:
      A                         A
e|----5-----5-----5-----5--|----5-----5-----5-----5---|
H|----5-----5-----5-----5--|----5-----5-----5-----5---|
G|----6-----6-----6-----6--|----6-----6-----6-----6---|
D|----7-----7-----7-----7--|----7-----7-----7-----7---| x2
A|-------------------------|--------------------------| 
E|-------------------------|--------------------------|             
   *     *     *     *       *     *     *     * 



REFRENG:
      A                         A
e|----5-----5-----5-----5--|----5-----5-----5-----5---|
H|----5-----5-----5-----5--|----5-----5-----5-----5---|
G|----6-----6-----6-----6--|----6-----6-----6-----6---|
D|----7-----7-----7-----7--|----7-----7-----7-----7---|
A|-------------------------|--------------------------|
E|-------------------------|--------------------------|             
   *     *     *     *       *     *     *     * 

      D                         A
e|----5-----5-----5-----5--|----5-----5-----5-----5---|
H|----7-----7-----7-----7--|----5-----5-----5-----5---|
G|----7-----7-----7-----7--|----6-----6-----6-----6---|
D|----7-----7-----7-----7--|----7-----7-----7-----7---| x2 
A|-------------------------|--------------------------|
E|-------------------------|--------------------------|             
   *     *     *     *       *     *     *     * 



VERS:
      A                         E
e|----5-----5-----5-----5--|----4-----4-----4-----4---|
H|----5-----5-----5-----5--|----5-----5-----5-----5---|
G|----6-----6-----6-----6--|----4-----4-----4-----4---|
D|----7-----7-----7-----7--|----6-----6-----6-----6---|
A|-------------------------|--------------------------|
E|-------------------------|--------------------------|    
   *     *     *     *       *     *     *     * 

      A                         D
e|----5-----5-----5-----5--|----5-----5-----5-----5---|
H|----5-----5-----5-----5--|----7-----7-----7-----7---|
G|----6-----6-----6-----6--|----7-----7-----7-----7---|
D|----7-----7-----7-----7--|----7-----7-----7-----7---|
A|-------------------------|--------------------------|
E|-------------------------|--------------------------|    
   *     *     *     *       *     *     *     * 

      A                         E
e|----5-----5-----5-----5--|----4-----4-----4-----4---|
H|----5-----5-----5-----5--|----5-----5-----5-----5---|
G|----6-----6-----6-----6--|----4-----4-----4-----4---|
D|----7-----7-----7-----7--|----6-----6-----6-----6---|
A|-------------------------|--------------------------|
E|-------------------------|--------------------------|      
   *     *     *     *       *     *     *     * 

      D                         A
e|----5-----5-----5-----5--|----5-----5-----5-----5---|
H|----7-----7-----7-----7--|----5-----5-----5-----5---|
G|----7-----7-----7-----7--|----6-----6-----6-----6---|
D|----7-----7-----7-----7--|----7-----7-----7-----7---|
A|-------------------------|--------------------------|
E|-------------------------|--------------------------|     
   *     *     *     *       *     *     *     * 



SOLO:                               
e|------5-----7----/9-----7-----5----|------12----14---/16----14----12--|
H|-----------------------------------|----------------------------------|
G|-/6-------7------/9-----7-----6----|-/13------14-----/16----14----13--|
D|-----------------------------------|----------------------------------|
A|-----------------------------------|----------------------------------|
E|-----------------------------------|----------------------------------|   
    *       *       *       *           *       *       *       *   
 
 
e|------5-----7----/9-----7-----5----|------10----12---/14----12----10--|
H|-----------------------------------|----------------------------------|
G|-/6-------7------/9-----7-----6----|-/11------12-----/14----12----11--|
D|-----------------------------------|----------------------------------|
A|-----------------------------------|----------------------------------|
E|-----------------------------------|----------------------------------|
    *       *       *       *           *       *       *       *     


e|------5-----7----/9-----7-----5----|------12----14---/16----14----12--|
H|-----------------------------------|----------------------------------|
G|-/6-------7------/9-----7-----6----|-/13------14-----/16----14----13--|
D|-----------------------------------|----------------------------------|
A|-----------------------------------|----------------------------------|
E|-----------------------------------|----------------------------------|
    *       *       *       *           *       *       *       *            
    
  

FILL 1 (1.solo)

e|-----------------------------------|------------------------------b12r-|
H|-----------------------------------|----------------------------10-----|
G|-----------------------------------|----------/6------------9-11-------|
D|-----------------------------------|-------------------7-/11-----------|
A|-----------------------------------|-----------------/9----------------|
E|-----------------------------------|-----------------------------------|       
    *       *       *       *           *       *       *       *     
      

      
FILL 2 (2.solo)
e|-----------------------------------|--------------------------b12r-----|
H|-----------------------------------|------------------------10---------|
G|-----------------------------------|--------------------9-11-----------|
D|-----------------------------------|----------11-----/11---------------|
A|-----------------------------------|-----------------------------------|
E|-----------------------------------|-----------------------------------|     
    *       *       *       *           *       *       *       *          


Tegnforklaring: / = slide opp \ = slide ned h = hammer-on p = pull-off t = tap (tapping med høyre hånd) b = bending r = bend tilbake(release) ~ = vibrato + = flageolett x = dempet tone * = repetisjonstegn ()= valgfritt / evt at tonen/akkorden fortsetter å klinge (fra forrige takt f.eks)

Three Little Birds [Bob Marley & the Wailers]


INTRO: A


REFRENG:
      A
Don't worry, about a thing
       D                              A 
Cause' every little thing, gonna be alright
              A 
Singin' don't worry, about a thing
       D                              A
Cause' every little thing, gonna be alright


VERS 1:
             A
Rise up this mornin'
               E
Smile with the rising sun
             A                 D
Three little birds perch by my doorstep
        A 
Singin' sweet songs
           E
of melody pure and true
       D                          A
sayin', this is my message to you-oo-oo


REFRENG:
              A
Singin' don't worry, about a thing
       D                                   A
Cause' every little thing, (is) gonna be alright
              A 
Singin' don't worry, (don't worry) about a thing
       D                              A
Cause' every little thing, gonna be alright


VERS 2:
             A
Rise up this mornin'
               E
Smile with the rising sun
             A                 D
Three little birds perch by my doorstep
        A 
Singin' sweet songs
           E
of melodys pure and true
       D                          A
sayin', this is my message to you-oo-oo


REFRENG;
      A
Don't worry, about a thing
       D                              A 
Cause' every little thing, gonna be alright
              A 
Singin' don't worry, about a thing
       D                              A
Cause' every little thing, gonna be alright


SOLO: A - E - A - D - A - E - D - A


REFRENG:
      A
Don't worry, about a thing
       D                              A 
Cause' every little thing, gonna be alright
              A 
Singin' don't worry, about a thing
       D                              A
Cause' every little thing, gonna be alright
      A
Don't worry, about a thing
       D                              A 
Cause' every little thing, gonna be alright



-----------------------

INTRO:
      A                         A
e|----5-----5-----5-----5--|----5-----5-----5-----5---|
H|----5-----5-----5-----5--|----5-----5-----5-----5---|
G|----6-----6-----6-----6--|----6-----6-----6-----6---|
D|----7-----7-----7-----7--|----7-----7-----7-----7---| x2
A|-------------------------|--------------------------| 
E|-------------------------|--------------------------|             
   *     *     *     *       *     *     *     * 



REFRENG:
      A                         A
e|----5-----5-----5-----5--|----5-----5-----5-----5---|
H|----5-----5-----5-----5--|----5-----5-----5-----5---|
G|----6-----6-----6-----6--|----6-----6-----6-----6---|
D|----7-----7-----7-----7--|----7-----7-----7-----7---|
A|-------------------------|--------------------------|
E|-------------------------|--------------------------|             
   *     *     *     *       *     *     *     * 

      D                         A
e|----5-----5-----5-----5--|----5-----5-----5-----5---|
H|----7-----7-----7-----7--|----5-----5-----5-----5---|
G|----7-----7-----7-----7--|----6-----6-----6-----6---|
D|----7-----7-----7-----7--|----7-----7-----7-----7---| x2 
A|-------------------------|--------------------------|
E|-------------------------|--------------------------|             
   *     *     *     *       *     *     *     * 



VERS:
      A                         E
e|----5-----5-----5-----5--|----4-----4-----4-----4---|
H|----5-----5-----5-----5--|----5-----5-----5-----5---|
G|----6-----6-----6-----6--|----4-----4-----4-----4---|
D|----7-----7-----7-----7--|----6-----6-----6-----6---|
A|-------------------------|--------------------------|
E|-------------------------|--------------------------|    
   *     *     *     *       *     *     *     * 

      A                         D
e|----5-----5-----5-----5--|----5-----5-----5-----5---|
H|----5-----5-----5-----5--|----7-----7-----7-----7---|
G|----6-----6-----6-----6--|----7-----7-----7-----7---|
D|----7-----7-----7-----7--|----7-----7-----7-----7---|
A|-------------------------|--------------------------|
E|-------------------------|--------------------------|    
   *     *     *     *       *     *     *     * 

      A                         E
e|----5-----5-----5-----5--|----4-----4-----4-----4---|
H|----5-----5-----5-----5--|----5-----5-----5-----5---|
G|----6-----6-----6-----6--|----4-----4-----4-----4---|
D|----7-----7-----7-----7--|----6-----6-----6-----6---|
A|-------------------------|--------------------------|
E|-------------------------|--------------------------|      
   *     *     *     *       *     *     *     * 

      D                         A
e|----5-----5-----5-----5--|----5-----5-----5-----5---|
H|----7-----7-----7-----7--|----5-----5-----5-----5---|
G|----7-----7-----7-----7--|----6-----6-----6-----6---|
D|----7-----7-----7-----7--|----7-----7-----7-----7---|
A|-------------------------|--------------------------|
E|-------------------------|--------------------------|     
   *     *     *     *       *     *     *     * 



SOLO:                               
e|------5-----7----/9-----7-----5----|------12----14---/16----14----12--|
H|-----------------------------------|----------------------------------|
G|-/6-------7------/9-----7-----6----|-/13------14-----/16----14----13--|
D|-----------------------------------|----------------------------------|
A|-----------------------------------|----------------------------------|
E|-----------------------------------|----------------------------------|   
    *       *       *       *           *       *       *       *   
 
 
e|------5-----7----/9-----7-----5----|------10----12---/14----12----10--|
H|-----------------------------------|----------------------------------|
G|-/6-------7------/9-----7-----6----|-/11------12-----/14----12----11--|
D|-----------------------------------|----------------------------------|
A|-----------------------------------|----------------------------------|
E|-----------------------------------|----------------------------------|
    *       *       *       *           *       *       *       *     


e|------5-----7----/9-----7-----5----|------12----14---/16----14----12--|
H|-----------------------------------|----------------------------------|
G|-/6-------7------/9-----7-----6----|-/13------14-----/16----14----13--|
D|-----------------------------------|----------------------------------|
A|-----------------------------------|----------------------------------|
E|-----------------------------------|----------------------------------|
    *       *       *       *           *       *       *       *            
    
  

FILL 1 (1.solo)

e|-----------------------------------|------------------------------b12r-|
H|-----------------------------------|----------------------------10-----|
G|-----------------------------------|----------/6------------9-11-------|
D|-----------------------------------|-------------------7-/11-----------|
A|-----------------------------------|-----------------/9----------------|
E|-----------------------------------|-----------------------------------|       
    *       *       *       *           *       *       *       *     
      

      
FILL 2 (2.solo)
e|-----------------------------------|--------------------------b12r-----|
H|-----------------------------------|------------------------10---------|
G|-----------------------------------|--------------------9-11-----------|
D|-----------------------------------|----------11-----/11---------------|
A|-----------------------------------|-----------------------------------|
E|-----------------------------------|-----------------------------------|     
    *       *       *       *           *       *       *       *          


Tegnforklaring: / = slide opp \ = slide ned h = hammer-on p = pull-off t = tap (tapping med høyre hånd) b = bending r = bend tilbake(release) ~ = vibrato + = flageolett x = dempet tone * = repetisjonstegn ()= valgfritt / evt at tonen/akkorden fortsetter å klinge (fra forrige takt f.eks)
×
 

Backingtrack-

 

Grep   

Om grepsdiagrammet


Vi bruker akkorden D dur som eksempel:

  1. De vertikale strekene viser gitarens 6 strenger. Streken til venstre er gitarens dypeste streng.
  2. De horisontale strekene viser gitarens bånd. I utgangspunktet vises gitarhalsens 5 første bånd, men hvis det er grep som tas høyere opp på gitarhalsen vil det på venstre side av diagrammet stå hvilket bånd man kan orientere seg ut fra.
  3. De svarte prikkene viser hvor vi skal legge fingrene på gitarhalsen, og tallene inni prikkene viser hvilke fingre vi skal bruke for å ta grepet.
  4. Bokstavene D A D F# forteller navnet på notene på strengene som spilles.
  5. Øverst på diagrammet ser vi symbolene 'O' og 'X'.
    • O = strengen skal spilles på.
    • X = strengen skal IKKE spilles på.
  6. Til venstre ser vi tallene 1, 2, 3, 4 og 5. Disse viser hvilket bånd som er utgangspunkt for grepet.

D

1.

2.

3.

4.

5.

  • X
  • X
  • O
  •  
  •  
  •  
  • D
  • A
  • D
  • F#




×

A

5.

6.

7.

8.

9.

  •  
  •  
  •  
  •  
  •  
  •  
  • A
  • E
  • A
  • C#
  • E
  • A

D

5.

6.

7.

8.

9.

  • X
  •  
  •  
  •  
  •  
  •  
  • D
  • A
  • D
  • F#
  • A

E

4.

5.

6.

7.

8.

  • X
  •  
  •  
  •  
  •  
  •  
  • E
  • G#
  • H
  • E
  • G#
 

Artikkel

7 tips til å spille reggae-gitar

Reggaen er på langt nær død og hvem vet, kanskje en dag er du blitt gitarist i et reggae-band? Da gjelder det å være klar og vite hvordan man spiller reggae og hvordan man ellers oppfører seg i et reggae-band. Her er 7 tips du kan ta med deg.

1 Utstyret

I utgangspunktet er alt lov når det gjelder type gitar, forsterkere og annet. Likevel er man nok litt mer "innafor" hvis man stiller med en Fender Stratocaster eller Telecaster, eventuelt kopierer Bob Marley og andre reggae-storheter og kjører en Gibson Les Paul.

Når det gjelder forsterkere og effekter bør man ikke ha ikke ha for mye stash. En enkel forsterker og noen effektpedaler som hjelper oss å få "reggae-sounden" er alt vi trenger. Reverb og wahwah, pluss litt delay og overdrive, og man er klar.

2 Lyden

Nå er vi inne på noe av det viktigste som reggae-gitarist. Det forventes av en reggae-gitarist at lyden som kommer ut av gitarforsterkeren er ren, skarp og gnistrende. Det brukes distortion-lyd i reggae også, men hovedfokuset er helt klart på den klare, rene gitarlyden.

3 Rytme og dempeeffekten

Et annet viktig moment er rytmen og demping. Disse to henger sammen. Med demping menes at etter å spilt en akkord skal den ikke klinge i det uendelige, men dempes ganske raskt. Man kan enten dempe med høyre håndflate(at den legges ned på strengene), eller man kan dempe med venstre hånd(da bare slipper man opp grepet litt fra strengen sånn at lyden opphører). Hvis man demper med venstre hånd bør man unngå grep som har løse strenger.

For å få mest mulig lyse og skarpe akkorder er det best å kun spille på de fire lyseste strengene.

4 Holdning og feeling

Reggaekongen Bob Marley sa en gang at mange vet hvordan man skal spille reggae, men de klarer det likevel ikke for det handler ikke om å vite, men å føle. Vi må ha reggae-feelingen, som gjerne er en lett hypnotiserende, enkel og laidback holdning til musikken, ja til livet generelt.

5 Solo- og melodispilling

Som nevnt vektlegger reggae-musikken feeling og timing mer enn raske licks og avanserte akkordprogresjoner. Når man spiller en reggae-solo er det bra å holde det enkelt og melodiøst. Man skal slappe av og leke seg med musikken. I reggae brukes mye pentatonskala i dur og moll. Disse er enkle og fine skalaer og i reggae er det enkle det beste.

6 Klærne

Mange tenker nok raskt på farger når man ser for seg en reggae-gitarist. Fortrinnsvis gul, rød og grønn. Likefullt kan en litt fotsid kjortel gjøre like susen hvis du er skeptisk til for mye farger. En solid hjemmestrikket lue som ligger som en slapp sopp på hodet er å foretrekke framfor caps og sixpence, men for all del, alt er lov. Det beste er nok å være seg selv og ikke minst, ja vi har sagt det før, laidback.

7 Utseendet

Er du afrikaner eller fra karibien har du helt klart en fordel, det samme gjelder fyldige rastafletter. Likevel, hvis du er hvit i huden og tynn i håret er alt håp langt fra ute. Reggae-musikken har inntatt de fleste kontinenter og blitt en sjanger for alle mennesker. En laidback holdning teller mer enn utseende kan vi nok slå fast.

Her er noen reggae-videoer å kikke på:


 

Flere videoer av Anders Nærø

 

YouTube