Videoleksjoner

Har du fyr? [Ola Bremnes]

Loading the player...
  • Nivå: Middels 5/10
  • Lengde: 19:38 min.
  • Lærer: Peder Åmland
  • Sjanger: Viser
  • Opplastet: 25.12.2016
  • Instrument: Akustisk


(Denne tjenesten tilbys av onlinegitar.no. Musikken er gjengitt med tillatelse fra TONO. Uautorisert lenking, videreføring eller kopiering er ulovlig.)

Besifring/tab  

Har du fyr? [Ola Bremnes]

INTRO: 	
   G                C/G                 G                 C/G      
   *        *        *        *          *        *        *        *
e|-3--------------------------3--------|----------3-----------------3--------|
H|----------0--------1-----------------|-0-----------------1-----------------|
G|-------0--------0--------0--------0--|-------0--------0--------0--------0--|
D|----0--------0--------2--------2-----|----0--------0--------2--------2-----|
A|-------------------------------------|-------------------------------------|
E|-3-----------------3-----------------|-3-----------------3-----------------|




VERS 1:
   G                 Hm                  C        D        G
   *        *        *        *          *        *        *        *
e|-3-----------------------------------|----------------------------3--------|
H|----------0-----------------3--------|----------------3--------0-----0-----|
G|-------0-----------------4-----4-----|-------0-----2--------0-----------0--|
D|----0--------0--------4-----------4--|----2-----0--------------------------|
A|----------------0--2-----------------|-3-----------------------------------|
E|-3-----------------------------------|-------------------3-----------------|
  Ytterst i verden, ytterst i vest  kan hende du seile di skute.
                           

   G                 Hm                  A7                D     
   *        *        *        *          *        *        *        *
e|-3-----------------------------------|----------------------------2--------|
H|----------0-----------------3--------|----------2--------------3-----3-----|
G|-------0-----------------4-----4-----|-------0-----0--------2-----------2--|
D|----0--------0--------4-----------4--|----2-----------2--0-----------------|
A|----------------0--2-----------------|-0-----------------------------------|
E|-3-----------------------------------|-------------------------------------|
Kan hende du seile tilfeldig som gjest kan hende du går der i rute.
                           

  D7sus4             G                   C                Gadd9    D/F#
   *        *        *        *          *        *        *        *
e|----------3--------------------------|----------0--------------------------|
H|-------1-----1--------------0--------|-1-----------1-----------------------|
G|----2-----------2--------0-----0-----|-------0--------0--------2--------2--|
D|-0--------------------0-----------0--|----2-----------------0--------0-----|
A|-------------------------------------|-3-----------------------------------|
E|-------------------3-----------------|-------------------3--------2--------|
 Uansett treng du et punkt som e fast,  der du frakte di skjøre last.
                               

   D       H7/D#     Em                  C        D        G                         D/F#
   *        *        *        *          *        *        *        *        *        *
e|-------------------------------0-----|----------------------------3------------------------|
H|-------3--------0--------0--------0--|----------------3--------0-----0-----0---------------|
G|----2--------2--------0--------------|-------0-----2--------0-----------0-----0----------2-|
D|-0--------1--------2-----------------|----2-----0--------------------------------0----0----|
A|-------------------------------------|-3---------------------------------------------------|
E|----------------------------0--------|-------------------3--------------------------2------|
  nok at det står der og brenn,      en trofast     gammel venn.                        Har du 
                          



REFRENG:
   Em7               C                   D                Dsus2
   *        *        *        *          *        *        *        *
e|----------0--------------------------|----------2-----------------0--------|
H|-------------3--------------1--------|-------3-----3-----------3-----3-----|
G|-------0--------0--------0-----0-----|----2-----------2-----2-----------2--|
D|----2-----------------2-----------2--|-0-----------------0-----------------|
A|-------------------3-----------------|-------------------------------------|
E|-0-----------------------------------|-------------------------------------|
   fyr?                          Har du løkte langs  din  vei.          Har du 


   Em7              Cadd9               Dsus2
   *        *        *        *          *        *        *        *
e|----------0--------------------------|----------0-----------------0--------|
H|-------------3--------------3--------|-------3-----3-----------3-----3-----|
G|-------0--------0--------0-----0-----|----2-----------2-----2-----------2--|
D|----2-----------------2-----------2--|-0-----------------0-----------------|
A|-------------------3-----------------|-------------------------------------|
E|-0-----------------------------------|-------------------------------------|
   fyr?                             Et  signal om   riktig lei.           Ei


   Em7               Hm                  C                 Am
   *        *        *        *          *        *        *        *
e|-------------------------------------|-------------------------------------|
H|----------3-----------------3--------|----------1-----------------1--------|
G|-------0-----0-----------4-----4-----|-------0-----0-----------2-----2-----|
D|----2-----------2-----4-----------4--|----2-----------2-----2-----------2--|
A|-------------------2-----------------|-3-----------------0-----------------|
E|-0-----------------------------------|-------------------------------------|
   lampe som gløde i mørket,       og   lose  dæ ut  og     frem.         Som


   G       D/F#      Em7                 C        D        G           ---> INTRO
   *        *        *        *          *        *        *        *
e|-------------------------------------|----------------------------3--------|
H|-------3--------3--------3-----------|----------------3--------0-----------|
G|----0--------2--------0-----------0--|-------0-----2--------0-----------0--|
D|-------------------------------0-----|----2-----0--------------------0-----|
A|-------------------------------------|-3-----------------------------------|
E|-3--------2--------0--------0--------|-------------------3-----------------|
   tar dæ bort  og  hjemmefra,     men  også   tar  dæ    hjem.
   
   
   
   
VERS 1:	
G                 Hm
Ytterst i verden, ytterst i vest
    C        D        G
kan hende du seile di skute.
     G                 Hm
Kan hende du seile tilfeldig som gjest
     A7                 D    
kan hende du går der i rute.
 D7                  G          
Uansett treng du et punkt som e fast,
 C                 G     D
der du frakte di skjøre last.
      D          H7/D#       Em
Det e nok at det står der og brenn,
    C       D      G       D/F#
en trofast gammel venn.



REFRENG:
       Em7     C
Har du fyr,
         D   
har du løkte langs din vei.
       Em7     Cadd9
Har du fyr,
     D   
et signal om riktig lei.
    Em7               Hm
Ei lampe som gløde i mørket,
     C           Am
og lose dæ ut og frem.
     G     D/F#    Em7
Som tar dæ bort og hjemmefra,
    C    D      G
men også tar dæ hjem.

 
 
VERS 2: 
   G                Hm
Vårherre sa det da jorda vart te,
 C                     G
la det bli lys, og det ble det.
    G               Hm
Så sette Han sol og måne og stjærne,
A7              D  
opp så vi kunne se det.
    D7                   G          
Men de som Han glemte i skapningens gry,
    C             G          D
va alle de som e dømt til å fly,
   D       H7/D#  Em
på havet i vær og vind,
      C          D         G   D/F#
mens skodde og mørke sett inn.

 
 
-REFRENG-



VERS 3:
Et landemerke for håp og drøm,
helst sku vi la det bemanne.
Der skarven flyg og der seien svøm,
ute på kanten av landet.
Et hus i havet som står han av,
og gjør en seilar så glad så glad.
Han rope så sjyen skvætt:
Æ vil bli sett! 



-REFRENG-

...Em  

    C    D      G
men også tar dæ hjem.
   

Har du fyr? [Ola Bremnes]


INTRO: 	
   G                C/G                 G                 C/G      
   *        *        *        *          *        *        *        *
e|-3--------------------------3--------|----------3-----------------3--------|
H|----------0--------1-----------------|-0-----------------1-----------------|
G|-------0--------0--------0--------0--|-------0--------0--------0--------0--|
D|----0--------0--------2--------2-----|----0--------0--------2--------2-----|
A|-------------------------------------|-------------------------------------|
E|-3-----------------3-----------------|-3-----------------3-----------------|




VERS 1:
   G                 Hm                  C        D        G
   *        *        *        *          *        *        *        *
e|-3-----------------------------------|----------------------------3--------|
H|----------0-----------------3--------|----------------3--------0-----0-----|
G|-------0-----------------4-----4-----|-------0-----2--------0-----------0--|
D|----0--------0--------4-----------4--|----2-----0--------------------------|
A|----------------0--2-----------------|-3-----------------------------------|
E|-3-----------------------------------|-------------------3-----------------|
  Ytterst i verden, ytterst i vest  kan hende du seile di skute.
                           

   G                 Hm                  A7                D     
   *        *        *        *          *        *        *        *
e|-3-----------------------------------|----------------------------2--------|
H|----------0-----------------3--------|----------2--------------3-----3-----|
G|-------0-----------------4-----4-----|-------0-----0--------2-----------2--|
D|----0--------0--------4-----------4--|----2-----------2--0-----------------|
A|----------------0--2-----------------|-0-----------------------------------|
E|-3-----------------------------------|-------------------------------------|
Kan hende du seile tilfeldig som gjest kan hende du går der i rute.
                           

  D7sus4             G                   C                Gadd9    D/F#
   *        *        *        *          *        *        *        *
e|----------3--------------------------|----------0--------------------------|
H|-------1-----1--------------0--------|-1-----------1-----------------------|
G|----2-----------2--------0-----0-----|-------0--------0--------2--------2--|
D|-0--------------------0-----------0--|----2-----------------0--------0-----|
A|-------------------------------------|-3-----------------------------------|
E|-------------------3-----------------|-------------------3--------2--------|
 Uansett treng du et punkt som e fast,  der du frakte di skjøre last.
                               

   D       H7/D#     Em                  C        D        G                         D/F#
   *        *        *        *          *        *        *        *        *        *
e|-------------------------------0-----|----------------------------3------------------------|
H|-------3--------0--------0--------0--|----------------3--------0-----0-----0---------------|
G|----2--------2--------0--------------|-------0-----2--------0-----------0-----0----------2-|
D|-0--------1--------2-----------------|----2-----0--------------------------------0----0----|
A|-------------------------------------|-3---------------------------------------------------|
E|----------------------------0--------|-------------------3--------------------------2------|
  nok at det står der og brenn,      en trofast     gammel venn.                        Har du 
                          



REFRENG:
   Em7               C                   D                Dsus2
   *        *        *        *          *        *        *        *
e|----------0--------------------------|----------2-----------------0--------|
H|-------------3--------------1--------|-------3-----3-----------3-----3-----|
G|-------0--------0--------0-----0-----|----2-----------2-----2-----------2--|
D|----2-----------------2-----------2--|-0-----------------0-----------------|
A|-------------------3-----------------|-------------------------------------|
E|-0-----------------------------------|-------------------------------------|
   fyr?                          Har du løkte langs  din  vei.          Har du 


   Em7              Cadd9               Dsus2
   *        *        *        *          *        *        *        *
e|----------0--------------------------|----------0-----------------0--------|
H|-------------3--------------3--------|-------3-----3-----------3-----3-----|
G|-------0--------0--------0-----0-----|----2-----------2-----2-----------2--|
D|----2-----------------2-----------2--|-0-----------------0-----------------|
A|-------------------3-----------------|-------------------------------------|
E|-0-----------------------------------|-------------------------------------|
   fyr?                             Et  signal om   riktig lei.           Ei


   Em7               Hm                  C                 Am
   *        *        *        *          *        *        *        *
e|-------------------------------------|-------------------------------------|
H|----------3-----------------3--------|----------1-----------------1--------|
G|-------0-----0-----------4-----4-----|-------0-----0-----------2-----2-----|
D|----2-----------2-----4-----------4--|----2-----------2-----2-----------2--|
A|-------------------2-----------------|-3-----------------0-----------------|
E|-0-----------------------------------|-------------------------------------|
   lampe som gløde i mørket,       og   lose  dæ ut  og     frem.         Som


   G       D/F#      Em7                 C        D        G           ---> INTRO
   *        *        *        *          *        *        *        *
e|-------------------------------------|----------------------------3--------|
H|-------3--------3--------3-----------|----------------3--------0-----------|
G|----0--------2--------0-----------0--|-------0-----2--------0-----------0--|
D|-------------------------------0-----|----2-----0--------------------0-----|
A|-------------------------------------|-3-----------------------------------|
E|-3--------2--------0--------0--------|-------------------3-----------------|
   tar dæ bort  og  hjemmefra,     men  også   tar  dæ    hjem.
   
   
   
   
VERS 1:	
G                 Hm
Ytterst i verden, ytterst i vest
    C        D        G
kan hende du seile di skute.
     G                 Hm
Kan hende du seile tilfeldig som gjest
     A7                 D    
kan hende du går der i rute.
 D7                  G          
Uansett treng du et punkt som e fast,
 C                 G     D
der du frakte di skjøre last.
      D          H7/D#       Em
Det e nok at det står der og brenn,
    C       D      G       D/F#
en trofast gammel venn.



REFRENG:
       Em7     C
Har du fyr,
         D   
har du løkte langs din vei.
       Em7     Cadd9
Har du fyr,
     D   
et signal om riktig lei.
    Em7               Hm
Ei lampe som gløde i mørket,
     C           Am
og lose dæ ut og frem.
     G     D/F#    Em7
Som tar dæ bort og hjemmefra,
    C    D      G
men også tar dæ hjem.

 
 
VERS 2: 
   G                Hm
Vårherre sa det da jorda vart te,
 C                     G
la det bli lys, og det ble det.
    G               Hm
Så sette Han sol og måne og stjærne,
A7              D  
opp så vi kunne se det.
    D7                   G          
Men de som Han glemte i skapningens gry,
    C             G          D
va alle de som e dømt til å fly,
   D       H7/D#  Em
på havet i vær og vind,
      C          D         G   D/F#
mens skodde og mørke sett inn.

 
 
-REFRENG-



VERS 3:
Et landemerke for håp og drøm,
helst sku vi la det bemanne.
Der skarven flyg og der seien svøm,
ute på kanten av landet.
Et hus i havet som står han av,
og gjør en seilar så glad så glad.
Han rope så sjyen skvætt:
Æ vil bli sett! 



-REFRENG-

...Em  

    C    D      G
men også tar dæ hjem.
   
×
 

Grep   

Om grepsdiagrammet


Vi bruker akkorden D dur som eksempel:

  1. De vertikale strekene viser gitarens 6 strenger. Streken til venstre er gitarens dypeste streng.
  2. De horisontale strekene viser gitarens bånd. I utgangspunktet vises gitarhalsens 5 første bånd, men hvis det er grep som tas høyere opp på gitarhalsen vil det på venstre side av diagrammet stå hvilket bånd man kan orientere seg ut fra.
  3. De svarte prikkene viser hvor vi skal legge fingrene på gitarhalsen, og tallene inni prikkene viser hvilke fingre vi skal bruke for å ta grepet.
  4. Bokstavene D A D F# forteller navnet på notene på strengene som spilles.
  5. Øverst på diagrammet ser vi symbolene 'O' og 'X'.
    • O = strengen skal spilles på.
    • X = strengen skal IKKE spilles på.
  6. Til venstre ser vi tallene 1, 2, 3, 4 og 5. Disse viser hvilket bånd som er utgangspunkt for grepet.

D

1.

2.

3.

4.

5.

  • X
  • X
  • O
  •  
  •  
  •  
  • D
  • A
  • D
  • F#




×

G

1.

2.

3.

4.

5.

  •  
  •  
  • O
  • O
  • O
  •  
  • G
  • H
  • D
  • G
  • H
  • G

C /G

1.

2.

3.

4.

5.

  •  
  • X
  •  
  • O
  •  
  • O
  • G
  • E
  • G
  • C
  • E

H m

1.

2.

3.

4.

5.

  • X
  •  
  •  
  •  
  •  
  •  
  • H
  • F#
  • H
  • D
  • F#

C

1.

2.

3.

4.

5.

  • X
  •  
  •  
  • O
  •  
  • O
  • C
  • E
  • G
  • C
  • E

D

1.

2.

3.

4.

5.

  • X
  • X
  • O
  •  
  •  
  •  
  • D
  • A
  • D
  • F#

A 7

1.

2.

3.

4.

5.

  • X
  • O
  •  
  • O
  •  
  • O
  • A
  • E
  • G
  • C#
  • E

D 7

1.

2.

3.

4.

5.

  • X
  • X
  • O
  •  
  •  
  •  
  • D
  • A
  • C
  • F#

G add9

1.

2.

3.

4.

5.

  •  
  • X
  • O
  •  
  • O
  •  
  • G
  • D
  • A
  • H
  • G

D /F#

1.

2.

3.

4.

5.

  •  
  • X
  • O
  •  
  •  
  •  
  • F#
  • D
  • A
  • D
  • F#

H 7/D#

1.

2.

3.

4.

5.

  • X
  • X
  •  
  •  
  • O
  •  
  • D#
  • A
  • H
  • F#

E m

1.

2.

3.

4.

5.

  • O
  •  
  •  
  • O
  • O
  • O
  • E
  • H
  • E
  • G
  • H
  • E

E m7

1.

2.

3.

4.

5.

  • O
  •  
  •  
  • O
  •  
  • O
  • E
  • H
  • E
  • G
  • D
  • E

C add9

1.

2.

3.

4.

5.

  • X
  •  
  •  
  • O
  •  
  • O
  • C
  • E
  • G
  • D
  • E

A m

1.

2.

3.

4.

5.

  • X
  • O
  •  
  •  
  •  
  • O
  • A
  • E
  • A
  • C
  • E
 

Relaterte videoer

 

Flere videoer av Peder Åmland