Videoleksjoner

JUL I SVINGEN 

 Artist/band: Odd Nordstoga  |  Lærer: Peder Åmland  |   Julesanger14.12-16

Loading the player...

Nivå: 5/10

VIDEOINFO

  • Video: Jul i svingen
  • Artist/band: Odd Nordstoga
  • Lærer: Peder Åmland
  • Instrument: Akustisk
  • Nivå: Middels 5/10
  • Lengde: 20:51 min.
  • Sjanger: Julesanger
  • Opplastet: 14.12.2016

(Denne tjenesten tilbys av onlinegitar.no. Musikken er gjengitt med tillatelse fra TONO. Uautorisert lenking, videreføring eller kopiering er ulovlig.)

×
    • Peder Åmland

    • Pop, viser, barnesanger
    • Peder har studert klassisk gitar og komposisjon i Kristiansand. Han er med-grunnlegger av Oslo Private Musikkskole og onlinegitar.no.

×

BESIFRING

GREP

RELATERT

LÆRER

VIDEO  

Jul i svingen - Odd Nordstoga


Info:
- Capo på 2.bånd.
- Scroll nedover for å se tabulatur til INTRO-melodien.
- "D/F#" i besifringen er egentlig Dsus4/F#.


VERS 1:
G     
Stille senker natten seg, over deg og over meg.
G                                                     D/F#                          
Snøen faller, alt er hvitt se så vakkert alt er blitt.
Em7            Cadd9  G                 G/H     Cadd9      
Snart er julen her på ny, i hver bygd og i hver by.
   D       G               Em7    D       G
la la-a-la la   la la-a-la la  la la-a-la la


VERS 2:
G 
Se nå daler snøen hvit. Julen, se den kommer hit, 
G                                                     D/F#  
til vår by og til vår grend. Der vi sammen nå igjen, 
Em7            Cadd9  G                    G/H    Cadd9  
tenner gran og jule - lykt. Alt er godt og alt er trygt.
   D       G               Em7    D       G     G 
la la-a-la la   la la-a-la la  la la-a-la la


VERS 3:
G          
Nissen kommer hit å ser, gaver har han også med.
G                                                     D/F#  
En til far og en til mor, en til alle barn på jord.
Em7           Cadd9  G                G/H     Cadd9  
Engler svever høyt i sky, over hav og land og by.
   D       G               Em7    D       G     G
la la-a-la la   la la-a-la la  la la-a-la la


VERS 4:
G  
Jorden snurrer rundt seg selv, lys blir mørke, dag blir kveld.
G                                                     G  G  G  D/F# 
Rekk meg hånden kjære venn, la ditt øye gli igjen.
Em7              Cadd9    G                    G/H      Cadd9
Her står vi i et vennskapsbånd, varmen går fra hånd til hånd. 
   D       G               Em7    D       G
la la-a-la la   la la-a-la la  la la-a-la la




MELLOMSPILL (første halvdel av intro):


VERS 5(kommer inn midt i verset):
Em7              Cadd9  G                      G/H      Cadd9
her står vi i et vennskapsbånd, varmen går fra hånd til hånd. 
   D       G               Em7    D       G
la la-a-la la   la la-a-la la  la la-a-la la
   D       G               Em7    D       G
la la-a-la la   la la-a-la la  la la-a-la la
   D       G               Em7    D       G
la la-a-la la   la la-a-la la  la la-a-la la

Cadd9          D    G



INTRO MELODI:
   G
   *       *         *       *          *       *          *       *
e|-3---3---2h3-5---|-3---0------------|------------------|-------------------|
H|-----------------|---------3--------|-1---1---0h1-3----|-1-----------------|
G|-----------------|------------------|------------------|-----2---0---------|
D|-----------------|------------------|------------------|-------------------|
A|-----------------|------------------|------------------|-------------------|
E|-----------------|------------------|------------------|-------------------|

   G
   *       *         *       *          *       *          *       *      
e|-------------0-2-|-2h3-0------------|-2h3-3---2h3-5----|-3-----------------|
H|-0---1---3-------|---------3--------|------------------|-----5---5/7-------|
G|-----------------|------------------|------------------|-------------------|
D|-----------------|------------------|------------------|-------------------|
A|-----------------|------------------|------------------|-------------------|
E|-----------------|------------------|------------------|-------------------|
          
   G      D/F#       Em7                Cadd9   G                         G/H
   *       *         *       *          *       *          *       *       *       
e|-------------0-2-|-2h3-3---2h3-5----|-3--0h2-----------|-----0-2-2h3------------|
H|-----------------|------------------|---------3--------|-3-----------3---1-0----|
G|-----------------|------------------|------------------|----------------------2-|
D|-----------------|------------------|------------------|------------------------|
A|-----------------|------------------|------------------|------------------------|
E|-----------------|------------------|------------------|------------------------|

   Cadd9                     D          G       Em7        Cadd9   D 
   *       *         *       *          *       *          *       *
e|-----------------|-----3---3--2--0--|------------------|-------------------|
H|-----------------|------------------|-3-----0-1-0------|-------------------|
G|-0---------------|------------------|-------------2----|-0-----0-0h2-------|
D|-----------------|------------------|------------------|-------------4-----|
A|-----------------|------------------|------------------|-------------------|
E|-----------------|------------------|------------------|-------------------|
 
   G
   *       *         *       *          
e|-----------------|------------------|
H|-----------------|------------------|
G|-0---------------|------------------|
D|-----------------|------------------|
A|-----------------|------------------|
E|-----------------|------------------|


Jul i svingen - Odd Nordstoga


Info:
- Capo på 2.bånd.
- Scroll nedover for å se tabulatur til INTRO-melodien.
- "D/F#" i besifringen er egentlig Dsus4/F#.


VERS 1:
G     
Stille senker natten seg, over deg og over meg.
G                                                     D/F#                          
Snøen faller, alt er hvitt se så vakkert alt er blitt.
Em7            Cadd9  G                 G/H     Cadd9      
Snart er julen her på ny, i hver bygd og i hver by.
   D       G               Em7    D       G
la la-a-la la   la la-a-la la  la la-a-la la


VERS 2:
G 
Se nå daler snøen hvit. Julen, se den kommer hit, 
G                                                     D/F#  
til vår by og til vår grend. Der vi sammen nå igjen, 
Em7            Cadd9  G                    G/H    Cadd9  
tenner gran og jule - lykt. Alt er godt og alt er trygt.
   D       G               Em7    D       G     G 
la la-a-la la   la la-a-la la  la la-a-la la


VERS 3:
G          
Nissen kommer hit å ser, gaver har han også med.
G                                                     D/F#  
En til far og en til mor, en til alle barn på jord.
Em7           Cadd9  G                G/H     Cadd9  
Engler svever høyt i sky, over hav og land og by.
   D       G               Em7    D       G     G
la la-a-la la   la la-a-la la  la la-a-la la


VERS 4:
G  
Jorden snurrer rundt seg selv, lys blir mørke, dag blir kveld.
G                                                     G  G  G  D/F# 
Rekk meg hånden kjære venn, la ditt øye gli igjen.
Em7              Cadd9    G                    G/H      Cadd9
Her står vi i et vennskapsbånd, varmen går fra hånd til hånd. 
   D       G               Em7    D       G
la la-a-la la   la la-a-la la  la la-a-la la




MELLOMSPILL (første halvdel av intro):


VERS 5(kommer inn midt i verset):
Em7              Cadd9  G                      G/H      Cadd9
her står vi i et vennskapsbånd, varmen går fra hånd til hånd. 
   D       G               Em7    D       G
la la-a-la la   la la-a-la la  la la-a-la la
   D       G               Em7    D       G
la la-a-la la   la la-a-la la  la la-a-la la
   D       G               Em7    D       G
la la-a-la la   la la-a-la la  la la-a-la la

Cadd9          D    G



INTRO MELODI:
   G
   *       *         *       *          *       *          *       *
e|-3---3---2h3-5---|-3---0------------|------------------|-------------------|
H|-----------------|---------3--------|-1---1---0h1-3----|-1-----------------|
G|-----------------|------------------|------------------|-----2---0---------|
D|-----------------|------------------|------------------|-------------------|
A|-----------------|------------------|------------------|-------------------|
E|-----------------|------------------|------------------|-------------------|

   G
   *       *         *       *          *       *          *       *      
e|-------------0-2-|-2h3-0------------|-2h3-3---2h3-5----|-3-----------------|
H|-0---1---3-------|---------3--------|------------------|-----5---5/7-------|
G|-----------------|------------------|------------------|-------------------|
D|-----------------|------------------|------------------|-------------------|
A|-----------------|------------------|------------------|-------------------|
E|-----------------|------------------|------------------|-------------------|
          
   G      D/F#       Em7                Cadd9   G                         G/H
   *       *         *       *          *       *          *       *       *       
e|-------------0-2-|-2h3-3---2h3-5----|-3--0h2-----------|-----0-2-2h3------------|
H|-----------------|------------------|---------3--------|-3-----------3---1-0----|
G|-----------------|------------------|------------------|----------------------2-|
D|-----------------|------------------|------------------|------------------------|
A|-----------------|------------------|------------------|------------------------|
E|-----------------|------------------|------------------|------------------------|

   Cadd9                     D          G       Em7        Cadd9   D 
   *       *         *       *          *       *          *       *
e|-----------------|-----3---3--2--0--|------------------|-------------------|
H|-----------------|------------------|-3-----0-1-0------|-------------------|
G|-0---------------|------------------|-------------2----|-0-----0-0h2-------|
D|-----------------|------------------|------------------|-------------4-----|
A|-----------------|------------------|------------------|-------------------|
E|-----------------|------------------|------------------|-------------------|
 
   G
   *       *         *       *          
e|-----------------|------------------|
H|-----------------|------------------|
G|-0---------------|------------------|
D|-----------------|------------------|
A|-----------------|------------------|
E|-----------------|------------------|


×
 

Om grepsdiagrammet


Vi bruker akkorden D dur som eksempel:

  1. De vertikale strekene viser gitarens 6 strenger. Streken til venstre er gitarens dypeste streng.
  2. De horisontale strekene viser gitarens bånd. I utgangspunktet vises gitarhalsens 5 første bånd, men hvis det er grep som tas høyere opp på gitarhalsen vil det på venstre side av diagrammet stå hvilket bånd man kan orientere seg ut fra.
  3. De svarte prikkene viser hvor vi skal legge fingrene på gitarhalsen, og tallene inni prikkene viser hvilke fingre vi skal bruke for å ta grepet.
  4. Bokstavene D A D F# forteller navnet på notene på strengene som spilles.
  5. Øverst på diagrammet ser vi symbolene 'O' og 'X'.
    • O = strengen skal spilles på.
    • X = strengen skal IKKE spilles på.
  6. Til venstre ser vi tallene 1, 2, 3, 4 og 5. Disse viser hvilket bånd som er utgangspunkt for grepet.

D

1.

2.

3.

4.

5.

  • X
  • X
  • O
  •  
  •  
  •  
  • D
  • A
  • D
  • F#




×

G

1.

2.

3.

4.

5.

  •  
  •  
  • O
  • O
  •  
  •  
  • G
  • H
  • D
  • G
  • D
  • G

D sus4/F#

1.

2.

3.

4.

5.

  •  
  • X
  • O
  •  
  •  
  •  
  • F#
  • D
  • A
  • D
  • G

E m7

1.

2.

3.

4.

5.

  • O
  •  
  •  
  • O
  •  
  •  
  • E
  • H
  • E
  • G
  • D
  • G

C add9

1.

2.

3.

4.

5.

  • X
  •  
  •  
  • O
  •  
  •  
  • C
  • E
  • G
  • D
  • G

G /H

1.

2.

3.

4.

5.

  • X
  •  
  • O
  • O
  •  
  •  
  • H
  • D
  • G
  • D
  • G

D

1.

2.

3.

4.

5.

  • X
  • X
  • O
  •  
  •  
  •  
  • D
  • A
  • D
  • F#

Flere videoleksjoner med Peder Åmland:

 
 




 


Copyright 2008-2018 onlinegitar.no