Videoleksjoner

Message In A Bottle [The Police]

Loading the player...
  • Nivå: Middels 5/10
  • Lengde: 3.37 min.
  • Lærer: Hedvig Mollestad Thomassen
  • Sjanger: Pop
  • Opplastet: 15.07.2016
  • Instrument: Elektrisk


(Denne tjenesten tilbys av onlinegitar.no. Musikken er gjengitt med tillatelse fra TONO. Uautorisert lenking, videreføring eller kopiering er ulovlig.)

Besifring/tab  

Message In A Bottle [The Police]

INTRO/VERS:
    C#madd9   Aadd9       Hadd9           F#add9
e|---------------------------|---------------------------|
H|---------------------------|---------------------------|
G|*--------8-----------------|--------------------------*| Rep.
D|*-----6--------------9-----|--------11-----------6-/7-*|
A|---4--------------7--------|-----9------------4--------|
E|------------5-----------7--|------------2--------------|



BRO:
     A5                         D5       E5
e|---------------------------|---------------------------|
H|---------------------------|---------------------------|
G|*--------------------------|--7---------9-------------*| Rep. 2x
D|*--7--7--7--7--7--7--7--7--|--7---------9-------------*|
A|---7--7--7--7--7--7--7--7--|--5-----0---7--------------|
E|---5--5--5--5--5--5--5--5--|----------------------(0)--|


     F#5                        D5
e|---------------------------|---------------------------|
H|---------------------------|---------------------------|
G|*--11-11-11-11-11-11-11-11-|--7--7--7--7--7--7--7--7--*| Rep. 3x
D|*--11-11-11-11-11-11-11-11-|--7--7--7--7--7--7--7--7--*|
A|----9--9--9--9--9--9--9--9-|--5--5--5--5--5--5--5--5---|
E|---------------------------|---------------------------|

 
 
REFRENG:
      C#m                        A
e|-----4---------------------|---5-----------------------|
H|-----5---------------------|---5-----------------------|
G|*----6---------------------|---6----------------------*| Rep. 3x
D|*----6---------------------|---7----------------------*|
A|-----4---------------------|---7-----------------------|
E|---------------------------|---5-----------------------|


      F#m
e|-----2---------------------|---------------------------|
H|-----2---------------------|---------------------------|
G|*----2---------------------|---------------------------|
D|*----4---------------------|---------------------------|
A|-----4---------------------|---------------------------|
E|-----2---------------------|---------------------------|




INTRO: | C#madd9 |  Aadd9   |  Hadd9   |  F#add9  |  x 2



VERS 1:
C#madd9  Aadd9      Hadd9  F#add9
             Just a castaway, 
   C#madd9 Aadd9   Hadd9 F#add9
an island  lost at sea,  oh
C#madd9 Aadd9  Hadd9  F#add9
       Another lonely day, 
C#madd9 Aadd9    Hadd9 F#add9
no one  here but me,   oh
C#madd9 Aadd9  Hadd9 F#add9 
        More   loneliness 
    C#madd9 Aadd9     Hadd9   F#add9        
than any    man could bear
C#madd9  Aadd9  Hadd9 F#add9
   Rescue me before I 
C#madd9 Aadd9   Hadd9  F#add9     
fall  into   despair,  oh



BRO:
A5            D5  E5        A5
 I'll send an S.O.S. to the world
             D5  E5         F#5
I'll send an S.O.S. to the world
            D5         
I hope that someone gets my
F#5          D5         
 I hope that someone gets my
F#5          D5          
 I hope that someone gets my
 
 
 
REFRENG:
C#m          A              C#m    A
Message in a bottle, yeah
C#m          A            F#m
Message in a bottle, yeah



VERS 2:
A year has passed since I wrote my note
But I should have known this right from the start
Only hope can keep me together
Love can mend your life but
Love can break your heart



-BRO-

-REFRENG-



VERS 3:  
Walked out this morning, I don't believe what I saw  
A hundred billion bottles washed up on the shore
Seems I'm not alone in being alone
Hundred billion castaways, looking for a home



-BRO-

-REFRENG- x2



MELLOMSPILL: | C#madd9 |  Aadd9   |  Hadd9   |  F#add9  |  x 2


OUTRO:
    C#madd9 Aadd9    Hadd9  F#add9 
I'm sending out at an S. O. S.
C#madd9 Aadd9    Hadd9  F#add9 
Sending out at an S. O. S.
C#madd9 Aadd9    Hadd9  F#add9 
Sending out at an S. O. S.
C#madd9 Aadd9    Hadd9  F#add9 
Sending out at an S. O. S.
C#madd9 Aadd9    Hadd9  F#add9 
Sending out at an S. O. S.

Message In A Bottle [The Police]


INTRO/VERS:
    C#madd9   Aadd9       Hadd9           F#add9
e|---------------------------|---------------------------|
H|---------------------------|---------------------------|
G|*--------8-----------------|--------------------------*| Rep.
D|*-----6--------------9-----|--------11-----------6-/7-*|
A|---4--------------7--------|-----9------------4--------|
E|------------5-----------7--|------------2--------------|



BRO:
     A5                         D5       E5
e|---------------------------|---------------------------|
H|---------------------------|---------------------------|
G|*--------------------------|--7---------9-------------*| Rep. 2x
D|*--7--7--7--7--7--7--7--7--|--7---------9-------------*|
A|---7--7--7--7--7--7--7--7--|--5-----0---7--------------|
E|---5--5--5--5--5--5--5--5--|----------------------(0)--|


     F#5                        D5
e|---------------------------|---------------------------|
H|---------------------------|---------------------------|
G|*--11-11-11-11-11-11-11-11-|--7--7--7--7--7--7--7--7--*| Rep. 3x
D|*--11-11-11-11-11-11-11-11-|--7--7--7--7--7--7--7--7--*|
A|----9--9--9--9--9--9--9--9-|--5--5--5--5--5--5--5--5---|
E|---------------------------|---------------------------|

 
 
REFRENG:
      C#m                        A
e|-----4---------------------|---5-----------------------|
H|-----5---------------------|---5-----------------------|
G|*----6---------------------|---6----------------------*| Rep. 3x
D|*----6---------------------|---7----------------------*|
A|-----4---------------------|---7-----------------------|
E|---------------------------|---5-----------------------|


      F#m
e|-----2---------------------|---------------------------|
H|-----2---------------------|---------------------------|
G|*----2---------------------|---------------------------|
D|*----4---------------------|---------------------------|
A|-----4---------------------|---------------------------|
E|-----2---------------------|---------------------------|




INTRO: | C#madd9 |  Aadd9   |  Hadd9   |  F#add9  |  x 2



VERS 1:
C#madd9  Aadd9      Hadd9  F#add9
             Just a castaway, 
   C#madd9 Aadd9   Hadd9 F#add9
an island  lost at sea,  oh
C#madd9 Aadd9  Hadd9  F#add9
       Another lonely day, 
C#madd9 Aadd9    Hadd9 F#add9
no one  here but me,   oh
C#madd9 Aadd9  Hadd9 F#add9 
        More   loneliness 
    C#madd9 Aadd9     Hadd9   F#add9        
than any    man could bear
C#madd9  Aadd9  Hadd9 F#add9
   Rescue me before I 
C#madd9 Aadd9   Hadd9  F#add9     
fall  into   despair,  oh



BRO:
A5            D5  E5        A5
 I'll send an S.O.S. to the world
             D5  E5         F#5
I'll send an S.O.S. to the world
            D5         
I hope that someone gets my
F#5          D5         
 I hope that someone gets my
F#5          D5          
 I hope that someone gets my
 
 
 
REFRENG:
C#m          A              C#m    A
Message in a bottle, yeah
C#m          A            F#m
Message in a bottle, yeah



VERS 2:
A year has passed since I wrote my note
But I should have known this right from the start
Only hope can keep me together
Love can mend your life but
Love can break your heart



-BRO-

-REFRENG-



VERS 3:  
Walked out this morning, I don't believe what I saw  
A hundred billion bottles washed up on the shore
Seems I'm not alone in being alone
Hundred billion castaways, looking for a home



-BRO-

-REFRENG- x2



MELLOMSPILL: | C#madd9 |  Aadd9   |  Hadd9   |  F#add9  |  x 2


OUTRO:
    C#madd9 Aadd9    Hadd9  F#add9 
I'm sending out at an S. O. S.
C#madd9 Aadd9    Hadd9  F#add9 
Sending out at an S. O. S.
C#madd9 Aadd9    Hadd9  F#add9 
Sending out at an S. O. S.
C#madd9 Aadd9    Hadd9  F#add9 
Sending out at an S. O. S.
C#madd9 Aadd9    Hadd9  F#add9 
Sending out at an S. O. S.
×
 

Tabs  




 

Backingtrack-

 

Grep   

Om grepsdiagrammet


Vi bruker akkorden D dur som eksempel:

  1. De vertikale strekene viser gitarens 6 strenger. Streken til venstre er gitarens dypeste streng.
  2. De horisontale strekene viser gitarens bånd. I utgangspunktet vises gitarhalsens 5 første bånd, men hvis det er grep som tas høyere opp på gitarhalsen vil det på venstre side av diagrammet stå hvilket bånd man kan orientere seg ut fra.
  3. De svarte prikkene viser hvor vi skal legge fingrene på gitarhalsen, og tallene inni prikkene viser hvilke fingre vi skal bruke for å ta grepet.
  4. Bokstavene D A D F# forteller navnet på notene på strengene som spilles.
  5. Øverst på diagrammet ser vi symbolene 'O' og 'X'.
    • O = strengen skal spilles på.
    • X = strengen skal IKKE spilles på.
  6. Til venstre ser vi tallene 1, 2, 3, 4 og 5. Disse viser hvilket bånd som er utgangspunkt for grepet.

D

1.

2.

3.

4.

5.

  • X
  • X
  • O
  •  
  •  
  •  
  • D
  • A
  • D
  • F#




×

C# madd9

4.

5.

6.

7.

8.

  • X
  •  
  •  
  •  
  •  
  • X
  • C#
  • G#
  • D#
  • E

A add9

5.

6.

7.

8.

9.

  •  
  •  
  •  
  •  
  •  
  •  
  • A
  • E
  • H
  • C#
  • E
  • A

H add9

7.

8.

9.

10.

11.

  •  
  •  
  •  
  •  
  •  
  •  
  • H
  • F#
  • C#
  • D#
  • F#
  • H

F# add9

2.

3.

4.

5.

6.

  •  
  •  
  •  
  •  
  •  
  •  
  • F#
  • C#
  • G#
  • A#
  • C#
  • F#

A 5

5.

6.

7.

8.

9.

  •  
  •  
  •  
  • X
  • X
  • X
  • A
  • E
  • A

D 5

5.

6.

7.

8.

9.

  • X
  •  
  •  
  •  
  • X
  • X
  • D
  • A
  • D

E 5

7.

8.

9.

10.

11.

  • X
  •  
  •  
  •  
  • X
  • X
  • E
  • H
  • E

F# 5

9.

10.

11.

12.

13.

  • X
  •  
  •  
  •  
  • X
  • X
  • F#
  • C#
  • F#

C# m

4.

5.

6.

7.

8.

  • X
  •  
  •  
  •  
  •  
  •  
  • C#
  • G#
  • C#
  • E
  • G#

A

5.

6.

7.

8.

9.

  •  
  •  
  •  
  •  
  •  
  •  
  • A
  • E
  • A
  • C#
  • E
  • A

F# m

1.

2.

3.

4.

5.

  •  
  •  
  •  
  •  
  •  
  •  
  • F#
  • C#
  • F#
  • A
  • C#
  • F#
 

Relaterte videoer

 

Flere videoer av Hedvig Mollestad Thomassen

 

YouTube