Videoleksjoner

En natt forbi [Jan Eggum]

Loading the player...
  • Nivå: Middels 7/10
  • Lengde: 29.04 min.
  • Lærer: Peder Åmland
  • Sjanger: Viser
  • Opplastet: 05.07.2016
  • Instrument: Akustisk


(Denne tjenesten tilbys av onlinegitar.no. Musikken er gjengitt med tillatelse fra TONO. Uautorisert lenking, videreføring eller kopiering er ulovlig.)

Besifring/tab  

En natt forbi [Jan Eggum]

INTRO:
    G          Gsus4  G       F#m11        H7
e|--------3--------3--------|-----2-----2-----2-----2--|
H|--------------------------|--0-----------0-----------|
G|-----4-----4--5-----4-----|--------2-----------2-----|
D|--------------------------|--------------------------|
A|--------------------------|--------------2-----------|
E|--3-----------3-----3-----|--2-----------------------|

    
    Em         Asus4  A        
e|--------0-----------------|--------------------------|
H|-----0-----0--3-----2-----|-----1-/3-----5-----7-----|
G|--0--------------0--------|-----------4-----5-----7--|
D|--------------------------|--0-----0-----0-----0-----|
A|--------------0-----0-----|--------------------------|
E|--0-----------------------|--------------------------|


    D        C
e|--------5--3--------3-----|
H|--------7--5--------5-----|
G|-----7-----5-----5--------|
D|--0-----------0-----------|
A|--------------------------|
E|--------------------------|



VERS 1:
    G          Gsus4  G       F#m11        H7   
e|--------3--------3--------|-----2-----2-----2-----2--|
H|--------------------------|--0-----------0-----------|
G|-----4-----4--5-----4-----|--------2-----------2-----|
D|--------------------------|--------------------------|
A|--------------------------|--------------2-----------|
E|--3-----------3-----3-----|--2-----------------------|
     Min krok er kald   med    grå   gardiner


    Em         Asus4  A    
e|--------0-----------------|--------------------------|
H|-----0-----0--3-----2-----|-----1-/3-----5-----7-----|
G|--0--------------0--------|-----------4-----5-----7--|
D|--------------------------|--0-----0-----0-----0-----|
A|--------------0-----0-----|--------------------------|
E|--0-----------------------|--------------------------|
     Som stenger solen         ute.


    G          Gsus4  G       F#m11        H7  
e|--------3--------3--------|-----2-----2-----2-----2--|
H|--------------------------|--0-----------0-----------|
G|-----4-----4--5-----4-----|--------2-----------2-----|
D|--------------------------|--------------------------|
A|--------------------------|--------------2-----------|
E|--3-----------3-----3-----|--2-----------------------|
     Min seng er smal    og    golvet   griner.


    Em         Asus4  A    
e|--------0-----------------|--------------------------|
H|-----0-----0--3-----2-----|-----1-/3-----5-----7-----|
G|--0--------------0--------|-----------4-----5-----7--|
D|--------------------------|--0-----0-----0-----0-----|
A|--------------0-----0-----|--------------------------|
E|--0-----------------------|--------------------------|
      Eg prater med     min    pute.                  En



REFRENG:
    Am7       D7sus4  D7       G           Em
e|--------3-----3-----2-----|--------3-----------0-----|
H|--------1-----1-----1-----|--------------------0-----|
G|-----0-----0-----2--------|-----4-----------0-----0--|
D|--------------0-----0-----|--------------------------|
A|--0-----------------------|--------------------------|
E|--------------------------|--3--------2--0-----------|
    natt              forbi   -                      et 


    Am7       D7sus4  D7       Dm7         G
e|--------0-----3-----2-----|--1-----1--------------3--|
H|--------1-----1-----1-----|--1-----1-----------3-----|
G|-----0-----0-----2--------|-----2--2--------4--------|
D|--------------0-----0-----|--0-----0-----------------|
A|--0-----------------------|--------------------------|
E|--------------------------|--------------3-----------|
    ensomt            monar - ki.          Sang    fra 


    Cmaj7      C#m7   Cm6      G/H         A#m6
e|--------0-----7-----5-----|--------3-----------3-----|
H|--------0-----5-----4-----|--------3-----------2-----|
G|-----0--------------------|-----0-----0-----0-----0--|
D|--------------------------|--------------------------|
A|--3-----------4-----3-----|--2-----------1-----------|
E|--------------------------|--------------------------|
    sjelen,    slipp  meg     ned.                  Eg 

    
    Am7       D7sus4  D7
e|--------3-----3-----2-----|
H|--------1-----1-----1-----|
G|-----0-----0-----2--------|
D|--------------0-----0-----|
A|--0-----------------------|
E|--------------------------|
   trenger en å våk - ne ...



Mellomspill:
    G          Gsus4  G       F#m11        H7
e|--------3--------3--------|-----2-----2-----2-----2--|
H|--------------------------|--0-----------0-----------|
G|-----4-----4--5-----4-----|--------2-----------2-----|
D|--------------------------|--------------------------|
A|--------------------------|--------------2-----------|
E|--3-----------3-----3-----|--2-----------------------|
    med.


    Em         A7sus4 A7       
e|--------0-----------------|--------------------------|
H|-----0-----0--3-----2-----|-----1-/3-----5-----7-----|
G|--0--------------0--------|-----------4-----5-----7--|
D|--------------------------|--0-----0-----0-----0-----|
A|--------------0-----0-----|--------------------------|
E|--0-----------------------|--------------------------|


VERS 2:
En drøm er dekt til to personer
Og samler støv på stolen.
Et tog av tause telefoner,
og angst for alkoholen.


REFRENG:
En natt forbi, en frihetsparodi.
Tåketanker, gi meg fred.
Jeg trenger en å våkne med.



Modulert del:
    G           E7
e|--------3-----------0-----|
H|--------3-----------3-----|
G|-----4-----4-----1--------|
D|--------------------------|
A|--------------------------|
E|--3-----------0-----------|
   


VERS I A:
    A          Asus4  A        G#m11       C#7
e|--------5--------5--------|-----4-----4-----4-----4--|
H|--------------------------|--0-----------0-----------|
G|-----6-----6--7-----6-----|--------4-----------4-----|
D|--------------------------|--------------------------|
A|--------------------------|--------------4-----------|
E|--5-----------5-----5-----|--4-----------------------|
      La la la la......


    F#m        H7sus4 H7       
e|--------2-----------------|--------------------------|
H|-----2-----2--5-----4-----|-----3-/5-----7-----9-----|
G|--2--------------2--------|-----------6-----7-----9--|
D|--------------------------|--------------------------|
A|--------------2-----2-----|--------------------------|
E|--2-----------------------|--0-----0-----0-----0-----|


    A          Asus4  A        G#m11       C#7
e|--------5--------5--------|-----4-----4-----4-----4--|
H|--------------------------|--0-----------0-----------|
G|-----6-----6--7-----6-----|--------4-----------4-----|
D|--------------------------|--------------------------|
A|--------------------------|--------------4-----------|
E|--5-----------5-----5-----|--4-----------------------|


    F#m        H7sus4 H7       
e|--------2-----------------|--------------------------|
H|-----2-----2--5-----4-----|-----3-/5-----7-----9-----|
G|--2--------------2--------|-----------6-----7-----9--|
D|--------------------------|--------------------------|
A|--------------2-----2-----|--------------------------|
E|--2-----------------------|--0-----0-----0-----0-----|



REFRENG i A:
    Hm7        E7sus4 E7       A           F#m
e|--------5-----5-----4-----|--------5-----------2-----|
H|--------3-----3-----3-----|--------------------2-----|
G|-----2-----2-----4--------|-----6-----------2--------|
D|--------------2-----2-----|--------------------------|
A|--2-----------------------|--------------------------|
E|--------------------------|--5--------4--2-----------|
 En natt              forbi   -                      en 


    Hm7        E7sus4 E7       Em          A
e|--------2-----5-----4-----|--------0-----------0-----|
H|--------3-----3-----3-----|--------0-----------2-----|
G|-----2-----2-----4--------|-----0-----0-----2-----2--|
D|--------------2-----2-----|--------------------------|
A|--2-----------------------|--------------0-----------|
E|--------------------------|--0-----------------------|
    stilnet           melo -  di.          Tåke - 


    Dmaj7      D#m7   Dm6      A/C#        Cm6	
e|--------------9-----7-----|--------5-----------5-----|
H|--------7-----7-----6-----|-----5-----5-----4-----4--|
G|--------6-----------------|--------------------------|
D|-----7-----7--------------|--------------------------|
A|--5-----------6-----5-----|--4-----------3-----------|
E|--------------------------|--------------------------|
    tanker,     gi    meg      fred.                Eg


    Hm7        E7sus4 E7     C#7sus4 C#7  F#sus  F#
e|--------5-----5-----4-----|-----------------2--------|
H|--------3-----3-----3-----|--7-----6-----------------|
G|-----2-----2-----4--------|-----4--------4-----3-----|
D|--------------2-----2-----|--------------------------|
A|--2-----------------------|--4-----4-----------------|
E|--------------------------|--------------2-----2-----|
   trenger en å sovne          ved,                 så


   Hm7   C#m7  Dmaj7  D/E      A          Asus4  A 
e|--------------------7-----|--------5--------5--------|
H|--3-----5-----7-----7-----|--------------------------|
G|--2-----4-----6-----7-----|-----6-----6--7-----6-----|
D|--4-----6-----7-----7-----|--------------------------|
A|--2-----4-----5-----7-----|--------------------------|
E|--------------------0-----|--5-----------5-----5-----|
   får eg en å våk -  ne      med.


    G#m11      C#m7            F#m        H7sus4 H7 
e|-----4-----4-----4-----4--|--------2-----------------|
H|--0-----------0-----------|-----2-----2--5-----4-----|
G|--------4-----------4-----|--2--------------2--------|
D|--------------------------|--------------------------|
A|--------------4-----------|--------------2-----2-----|
E|--4-----------------------|--2-----------------------|


                               A           A
e|--------------------------|------------5-5-----------|
H|-----3-/5-----7-----9-----|----------5---5-----------|
G|-----------6-----7-----9--|--------6-----6-----------|
D|--------------------------|------7-------7-----------|
A|--------------------------|----7---------7-----------|
E|--0-----0-----0-----0-----|--5-----------5-----------|


Tegnforklaring: / = slide opp \ = slide ned h = hammer-on p = pull-off t = tap (tapping med høyre hånd) b = bending r = bend tilbake(release) ~ = vibrato + = flageolett x = dempet tone * = repetisjonstegn ()= valgfritt

En natt forbi [Jan Eggum]


INTRO:
    G          Gsus4  G       F#m11        H7
e|--------3--------3--------|-----2-----2-----2-----2--|
H|--------------------------|--0-----------0-----------|
G|-----4-----4--5-----4-----|--------2-----------2-----|
D|--------------------------|--------------------------|
A|--------------------------|--------------2-----------|
E|--3-----------3-----3-----|--2-----------------------|

    
    Em         Asus4  A        
e|--------0-----------------|--------------------------|
H|-----0-----0--3-----2-----|-----1-/3-----5-----7-----|
G|--0--------------0--------|-----------4-----5-----7--|
D|--------------------------|--0-----0-----0-----0-----|
A|--------------0-----0-----|--------------------------|
E|--0-----------------------|--------------------------|


    D        C
e|--------5--3--------3-----|
H|--------7--5--------5-----|
G|-----7-----5-----5--------|
D|--0-----------0-----------|
A|--------------------------|
E|--------------------------|



VERS 1:
    G          Gsus4  G       F#m11        H7   
e|--------3--------3--------|-----2-----2-----2-----2--|
H|--------------------------|--0-----------0-----------|
G|-----4-----4--5-----4-----|--------2-----------2-----|
D|--------------------------|--------------------------|
A|--------------------------|--------------2-----------|
E|--3-----------3-----3-----|--2-----------------------|
     Min krok er kald   med    grå   gardiner


    Em         Asus4  A    
e|--------0-----------------|--------------------------|
H|-----0-----0--3-----2-----|-----1-/3-----5-----7-----|
G|--0--------------0--------|-----------4-----5-----7--|
D|--------------------------|--0-----0-----0-----0-----|
A|--------------0-----0-----|--------------------------|
E|--0-----------------------|--------------------------|
     Som stenger solen         ute.


    G          Gsus4  G       F#m11        H7  
e|--------3--------3--------|-----2-----2-----2-----2--|
H|--------------------------|--0-----------0-----------|
G|-----4-----4--5-----4-----|--------2-----------2-----|
D|--------------------------|--------------------------|
A|--------------------------|--------------2-----------|
E|--3-----------3-----3-----|--2-----------------------|
     Min seng er smal    og    golvet   griner.


    Em         Asus4  A    
e|--------0-----------------|--------------------------|
H|-----0-----0--3-----2-----|-----1-/3-----5-----7-----|
G|--0--------------0--------|-----------4-----5-----7--|
D|--------------------------|--0-----0-----0-----0-----|
A|--------------0-----0-----|--------------------------|
E|--0-----------------------|--------------------------|
      Eg prater med     min    pute.                  En



REFRENG:
    Am7       D7sus4  D7       G           Em
e|--------3-----3-----2-----|--------3-----------0-----|
H|--------1-----1-----1-----|--------------------0-----|
G|-----0-----0-----2--------|-----4-----------0-----0--|
D|--------------0-----0-----|--------------------------|
A|--0-----------------------|--------------------------|
E|--------------------------|--3--------2--0-----------|
    natt              forbi   -                      et 


    Am7       D7sus4  D7       Dm7         G
e|--------0-----3-----2-----|--1-----1--------------3--|
H|--------1-----1-----1-----|--1-----1-----------3-----|
G|-----0-----0-----2--------|-----2--2--------4--------|
D|--------------0-----0-----|--0-----0-----------------|
A|--0-----------------------|--------------------------|
E|--------------------------|--------------3-----------|
    ensomt            monar - ki.          Sang    fra 


    Cmaj7      C#m7   Cm6      G/H         A#m6
e|--------0-----7-----5-----|--------3-----------3-----|
H|--------0-----5-----4-----|--------3-----------2-----|
G|-----0--------------------|-----0-----0-----0-----0--|
D|--------------------------|--------------------------|
A|--3-----------4-----3-----|--2-----------1-----------|
E|--------------------------|--------------------------|
    sjelen,    slipp  meg     ned.                  Eg 

    
    Am7       D7sus4  D7
e|--------3-----3-----2-----|
H|--------1-----1-----1-----|
G|-----0-----0-----2--------|
D|--------------0-----0-----|
A|--0-----------------------|
E|--------------------------|
   trenger en å våk - ne ...



Mellomspill:
    G          Gsus4  G       F#m11        H7
e|--------3--------3--------|-----2-----2-----2-----2--|
H|--------------------------|--0-----------0-----------|
G|-----4-----4--5-----4-----|--------2-----------2-----|
D|--------------------------|--------------------------|
A|--------------------------|--------------2-----------|
E|--3-----------3-----3-----|--2-----------------------|
    med.


    Em         A7sus4 A7       
e|--------0-----------------|--------------------------|
H|-----0-----0--3-----2-----|-----1-/3-----5-----7-----|
G|--0--------------0--------|-----------4-----5-----7--|
D|--------------------------|--0-----0-----0-----0-----|
A|--------------0-----0-----|--------------------------|
E|--0-----------------------|--------------------------|


VERS 2:
En drøm er dekt til to personer
Og samler støv på stolen.
Et tog av tause telefoner,
og angst for alkoholen.


REFRENG:
En natt forbi, en frihetsparodi.
Tåketanker, gi meg fred.
Jeg trenger en å våkne med.



Modulert del:
    G           E7
e|--------3-----------0-----|
H|--------3-----------3-----|
G|-----4-----4-----1--------|
D|--------------------------|
A|--------------------------|
E|--3-----------0-----------|
   


VERS I A:
    A          Asus4  A        G#m11       C#7
e|--------5--------5--------|-----4-----4-----4-----4--|
H|--------------------------|--0-----------0-----------|
G|-----6-----6--7-----6-----|--------4-----------4-----|
D|--------------------------|--------------------------|
A|--------------------------|--------------4-----------|
E|--5-----------5-----5-----|--4-----------------------|
      La la la la......


    F#m        H7sus4 H7       
e|--------2-----------------|--------------------------|
H|-----2-----2--5-----4-----|-----3-/5-----7-----9-----|
G|--2--------------2--------|-----------6-----7-----9--|
D|--------------------------|--------------------------|
A|--------------2-----2-----|--------------------------|
E|--2-----------------------|--0-----0-----0-----0-----|


    A          Asus4  A        G#m11       C#7
e|--------5--------5--------|-----4-----4-----4-----4--|
H|--------------------------|--0-----------0-----------|
G|-----6-----6--7-----6-----|--------4-----------4-----|
D|--------------------------|--------------------------|
A|--------------------------|--------------4-----------|
E|--5-----------5-----5-----|--4-----------------------|


    F#m        H7sus4 H7       
e|--------2-----------------|--------------------------|
H|-----2-----2--5-----4-----|-----3-/5-----7-----9-----|
G|--2--------------2--------|-----------6-----7-----9--|
D|--------------------------|--------------------------|
A|--------------2-----2-----|--------------------------|
E|--2-----------------------|--0-----0-----0-----0-----|



REFRENG i A:
    Hm7        E7sus4 E7       A           F#m
e|--------5-----5-----4-----|--------5-----------2-----|
H|--------3-----3-----3-----|--------------------2-----|
G|-----2-----2-----4--------|-----6-----------2--------|
D|--------------2-----2-----|--------------------------|
A|--2-----------------------|--------------------------|
E|--------------------------|--5--------4--2-----------|
 En natt              forbi   -                      en 


    Hm7        E7sus4 E7       Em          A
e|--------2-----5-----4-----|--------0-----------0-----|
H|--------3-----3-----3-----|--------0-----------2-----|
G|-----2-----2-----4--------|-----0-----0-----2-----2--|
D|--------------2-----2-----|--------------------------|
A|--2-----------------------|--------------0-----------|
E|--------------------------|--0-----------------------|
    stilnet           melo -  di.          Tåke - 


    Dmaj7      D#m7   Dm6      A/C#        Cm6	
e|--------------9-----7-----|--------5-----------5-----|
H|--------7-----7-----6-----|-----5-----5-----4-----4--|
G|--------6-----------------|--------------------------|
D|-----7-----7--------------|--------------------------|
A|--5-----------6-----5-----|--4-----------3-----------|
E|--------------------------|--------------------------|
    tanker,     gi    meg      fred.                Eg


    Hm7        E7sus4 E7     C#7sus4 C#7  F#sus  F#
e|--------5-----5-----4-----|-----------------2--------|
H|--------3-----3-----3-----|--7-----6-----------------|
G|-----2-----2-----4--------|-----4--------4-----3-----|
D|--------------2-----2-----|--------------------------|
A|--2-----------------------|--4-----4-----------------|
E|--------------------------|--------------2-----2-----|
   trenger en å sovne          ved,                 så


   Hm7   C#m7  Dmaj7  D/E      A          Asus4  A 
e|--------------------7-----|--------5--------5--------|
H|--3-----5-----7-----7-----|--------------------------|
G|--2-----4-----6-----7-----|-----6-----6--7-----6-----|
D|--4-----6-----7-----7-----|--------------------------|
A|--2-----4-----5-----7-----|--------------------------|
E|--------------------0-----|--5-----------5-----5-----|
   får eg en å våk -  ne      med.


    G#m11      C#m7            F#m        H7sus4 H7 
e|-----4-----4-----4-----4--|--------2-----------------|
H|--0-----------0-----------|-----2-----2--5-----4-----|
G|--------4-----------4-----|--2--------------2--------|
D|--------------------------|--------------------------|
A|--------------4-----------|--------------2-----2-----|
E|--4-----------------------|--2-----------------------|


                               A           A
e|--------------------------|------------5-5-----------|
H|-----3-/5-----7-----9-----|----------5---5-----------|
G|-----------6-----7-----9--|--------6-----6-----------|
D|--------------------------|------7-------7-----------|
A|--------------------------|----7---------7-----------|
E|--0-----0-----0-----0-----|--5-----------5-----------|


Tegnforklaring: / = slide opp \ = slide ned h = hammer-on p = pull-off t = tap (tapping med høyre hånd) b = bending r = bend tilbake(release) ~ = vibrato + = flageolett x = dempet tone * = repetisjonstegn ()= valgfritt
×
 

Tabs  




 

Grep   

Om grepsdiagrammet


Vi bruker akkorden D dur som eksempel:

  1. De vertikale strekene viser gitarens 6 strenger. Streken til venstre er gitarens dypeste streng.
  2. De horisontale strekene viser gitarens bånd. I utgangspunktet vises gitarhalsens 5 første bånd, men hvis det er grep som tas høyere opp på gitarhalsen vil det på venstre side av diagrammet stå hvilket bånd man kan orientere seg ut fra.
  3. De svarte prikkene viser hvor vi skal legge fingrene på gitarhalsen, og tallene inni prikkene viser hvilke fingre vi skal bruke for å ta grepet.
  4. Bokstavene D A D F# forteller navnet på notene på strengene som spilles.
  5. Øverst på diagrammet ser vi symbolene 'O' og 'X'.
    • O = strengen skal spilles på.
    • X = strengen skal IKKE spilles på.
  6. Til venstre ser vi tallene 1, 2, 3, 4 og 5. Disse viser hvilket bånd som er utgangspunkt for grepet.

D

1.

2.

3.

4.

5.

  • X
  • X
  • O
  •  
  •  
  •  
  • D
  • A
  • D
  • F#




×

G

1.

2.

3.

4.

5.

  •  
  •  
  •  
  •  
  •  
  •  
  • G
  • D
  • G
  • H
  • D
  • G

G 7sus4

3.

4.

5.

6.

7.

  •  
  •  
  •  
  •  
  •  
  •  
  • G
  • D
  • F
  • C
  • D
  • G

F# m11

1.

2.

3.

4.

5.

  •  
  • X
  •  
  •  
  • O
  • O
  • F#
  • E
  • A
  • H
  • E

H 7

1.

2.

3.

4.

5.

  • X
  •  
  •  
  •  
  • O
  •  
  • H
  • D#
  • A
  • H
  • F#

E m

1.

2.

3.

4.

5.

  • O
  •  
  •  
  • O
  • O
  • O
  • E
  • H
  • E
  • G
  • H
  • E

A 7sus4

1.

2.

3.

4.

5.

  • X
  • O
  •  
  • O
  •  
  • O
  • A
  • E
  • G
  • D
  • E

A 7

1.

2.

3.

4.

5.

  • X
  • O
  •  
  • O
  •  
  • O
  • A
  • E
  • G
  • C#
  • E

A m7

1.

2.

3.

4.

5.

  • X
  • O
  •  
  • O
  •  
  •  
  • A
  • E
  • G
  • C
  • G

D 7sus4

1.

2.

3.

4.

5.

  • X
  • X
  • O
  •  
  •  
  •  
  • D
  • A
  • C
  • G

D 7

1.

2.

3.

4.

5.

  • X
  • X
  • O
  •  
  •  
  •  
  • D
  • A
  • C
  • F#

D m7

1.

2.

3.

4.

5.

  • X
  • X
  • O
  •  
  •  
  •  
  • D
  • A
  • C
  • F

C maj7

1.

2.

3.

4.

5.

  • X
  •  
  •  
  • O
  • O
  • O
  • C
  • E
  • G
  • H
  • E

C# m7

4.

5.

6.

7.

8.

  • X
  •  
  •  
  •  
  •  
  •  
  • C#
  • G#
  • H
  • E
  • H

C m6

1.

2.

3.

4.

5.

  • X
  •  
  • X
  •  
  •  
  •  
  • C
  • C
  • Eb
  • A

G /H

1.

2.

3.

4.

5.

  • X
  •  
  • O
  • O
  •  
  •  
  • H
  • D
  • G
  • D
  • G

E 7

1.

2.

3.

4.

5.

  • O
  •  
  •  
  •  
  •  
  • O
  • E
  • H
  • E
  • G#
  • D
  • E
 

Relaterte videoer

 

Flere videoer av Peder Åmland

 

YouTube

 




 

Copyright 2008-2017 onlinegitar.no