Videoleksjoner

Fragile, melodi [Sting]

Loading the player...
  • Nivå: Middels 5/10
  • Lengde: 9.09 min.
  • Lærer: Johan Tobias Bergstrøm
  • Sjanger: Pop
  • Opplastet: 08.04.2016
  • Instrument: Akustisk


(Denne tjenesten tilbys av onlinegitar.no. Musikken er gjengitt med tillatelse fra TONO. Uautorisert lenking, videreføring eller kopiering er ulovlig.)

Besifring/tab  

Fragile, melodi [Sting]

MELODI

Intro/Vers:
     Em                               Am
e|---5/7------5---3---3---7---7----|--3--------2---0---0---3---3---|
H|---------------------------------|-------------------------------|
G|*--5/7------5---4---4---7---7----|--4--------2---0---0---4---4---| 
D|*--------------------------------|-------------------------------|
A|---------------------------------|-------------------------------|
E|---------------------------------|-------------------------------|

     H7                               Em
e|---3--------2---0---0------------|--2--------0---3---------------|
H|------------------------4---4----|-------------------------------|
G|---4--------2---0---0------------|--2--------0---4---------------| 
D|------------------------4---4----|-------------------------------|
A|---------------------------------|-------------------------------|
E|---------------------------------|-------------------------------|

     Em                               Am
e|---5/7------5---3---3---7---7----|--3--------2---0---0---3---3---|
H|---------------------------------|-------------------------------|
G|*--5/7------5---4---4---7---7----|--4--------2---0---0---4---4---| 
D|*--------------------------------|-------------------------------|
A|---------------------------------|-------------------------------|
E|---------------------------------|-------------------------------|

     H7                               Em
e|---3--------2---0---0------------|--2--------3---0---------------|
H|------------------------4---4----|-------------------------------|
G|---4--------2---0---0------------|--2--------4---0--------------*| 
D|------------------------4---4----|------------------------------*|
A|---------------------------------|-------------------------------|
E|---------------------------------|-------------------------------|



Refreng:
e|---5--------3---5------------3---|--3--------2---3-----------2---|
H|---------------------------------|-------------------------------|
G|*--5--------4---5------------4---|--4--------2---4-----------2---| 
D|*--------------------------------|-------------------------------|
A|---------------------------------|-------------------------------|
E|---------------------------------|-------------------------------|


e|---3----2---2---0------------2---|--3----2---2---0-----(2)--(3)--|
H|---------------------------------|-------------------------------|
G|---4----2---2---0------------2---|--4----2---2---0-----(2)--(4)-*| 
D|---------------------------------|------------------------------*|
A|---------------------------------|-------------------------------|
E|---------------------------------|-------------------------------|



Outro:
e|---3-----2---2---0-----------2---|
H|---------------------------------|
G|*--4-----2---2---0-----------2--*| Repeteres flere
D|*-------------------------------*| ganger...
A|---------------------------------|
E|---------------------------------|




BESIFRING

Intro: ||: Em - Am - H7 - Em  :|| x2


Vers 1:
              Em                  Am 
If blood will flow when flesh and steel are one 
H7                          Em 
Drying in the colour of the evening sun 
           Em                 Am 
Tomorrow's rain will wash the stains away 
    H7                                  Em 
But something in our minds will always stay 


Vers 2:
   Em    
Perhaps this final act was meant 
   Am 
To clinch a lifetime's argument 
     H7 
That nothing comes from violence 
    Em 
and nothing ever could 
    Em                              Am 
For all those born beneath an angry star 
     H7                       Em 
Lest we forget how fragile we are 


Refreng:
Am            H7 
On and on the rain will fall 
     Em 
Like tears from a star 
     Em
Like tears from a star 
Am            H7 
On and on the rain will say 
    Em 
How fragile we are 
    Em
How fragile we are
 
 
Mellomspill: ||: Em - Am - H7 - Em  :|| (Rep 4x under gitarsoloen) 


Refreng:
Am            H7 
On and on the rain will fall 
     Em 
Like tears from a star 
     Em
Like tears from a star 
Am            H7
On and on the rain will say 
    Em 
How fragile we are 
    Em
How fragile we are 


Outro:
    Em
How fragile we are 
    Em
How fragile we are

Fragile, melodi [Sting]


MELODI

Intro/Vers:
     Em                               Am
e|---5/7------5---3---3---7---7----|--3--------2---0---0---3---3---|
H|---------------------------------|-------------------------------|
G|*--5/7------5---4---4---7---7----|--4--------2---0---0---4---4---| 
D|*--------------------------------|-------------------------------|
A|---------------------------------|-------------------------------|
E|---------------------------------|-------------------------------|

     H7                               Em
e|---3--------2---0---0------------|--2--------0---3---------------|
H|------------------------4---4----|-------------------------------|
G|---4--------2---0---0------------|--2--------0---4---------------| 
D|------------------------4---4----|-------------------------------|
A|---------------------------------|-------------------------------|
E|---------------------------------|-------------------------------|

     Em                               Am
e|---5/7------5---3---3---7---7----|--3--------2---0---0---3---3---|
H|---------------------------------|-------------------------------|
G|*--5/7------5---4---4---7---7----|--4--------2---0---0---4---4---| 
D|*--------------------------------|-------------------------------|
A|---------------------------------|-------------------------------|
E|---------------------------------|-------------------------------|

     H7                               Em
e|---3--------2---0---0------------|--2--------3---0---------------|
H|------------------------4---4----|-------------------------------|
G|---4--------2---0---0------------|--2--------4---0--------------*| 
D|------------------------4---4----|------------------------------*|
A|---------------------------------|-------------------------------|
E|---------------------------------|-------------------------------|



Refreng:
e|---5--------3---5------------3---|--3--------2---3-----------2---|
H|---------------------------------|-------------------------------|
G|*--5--------4---5------------4---|--4--------2---4-----------2---| 
D|*--------------------------------|-------------------------------|
A|---------------------------------|-------------------------------|
E|---------------------------------|-------------------------------|


e|---3----2---2---0------------2---|--3----2---2---0-----(2)--(3)--|
H|---------------------------------|-------------------------------|
G|---4----2---2---0------------2---|--4----2---2---0-----(2)--(4)-*| 
D|---------------------------------|------------------------------*|
A|---------------------------------|-------------------------------|
E|---------------------------------|-------------------------------|



Outro:
e|---3-----2---2---0-----------2---|
H|---------------------------------|
G|*--4-----2---2---0-----------2--*| Repeteres flere
D|*-------------------------------*| ganger...
A|---------------------------------|
E|---------------------------------|




BESIFRING

Intro: ||: Em - Am - H7 - Em  :|| x2


Vers 1:
              Em                  Am 
If blood will flow when flesh and steel are one 
H7                          Em 
Drying in the colour of the evening sun 
           Em                 Am 
Tomorrow's rain will wash the stains away 
    H7                                  Em 
But something in our minds will always stay 


Vers 2:
   Em    
Perhaps this final act was meant 
   Am 
To clinch a lifetime's argument 
     H7 
That nothing comes from violence 
    Em 
and nothing ever could 
    Em                              Am 
For all those born beneath an angry star 
     H7                       Em 
Lest we forget how fragile we are 


Refreng:
Am            H7 
On and on the rain will fall 
     Em 
Like tears from a star 
     Em
Like tears from a star 
Am            H7 
On and on the rain will say 
    Em 
How fragile we are 
    Em
How fragile we are
 
 
Mellomspill: ||: Em - Am - H7 - Em  :|| (Rep 4x under gitarsoloen) 


Refreng:
Am            H7 
On and on the rain will fall 
     Em 
Like tears from a star 
     Em
Like tears from a star 
Am            H7
On and on the rain will say 
    Em 
How fragile we are 
    Em
How fragile we are 


Outro:
    Em
How fragile we are 
    Em
How fragile we are
×
 

Grep   

Om grepsdiagrammet


Vi bruker akkorden D dur som eksempel:

  1. De vertikale strekene viser gitarens 6 strenger. Streken til venstre er gitarens dypeste streng.
  2. De horisontale strekene viser gitarens bånd. I utgangspunktet vises gitarhalsens 5 første bånd, men hvis det er grep som tas høyere opp på gitarhalsen vil det på venstre side av diagrammet stå hvilket bånd man kan orientere seg ut fra.
  3. De svarte prikkene viser hvor vi skal legge fingrene på gitarhalsen, og tallene inni prikkene viser hvilke fingre vi skal bruke for å ta grepet.
  4. Bokstavene D A D F# forteller navnet på notene på strengene som spilles.
  5. Øverst på diagrammet ser vi symbolene 'O' og 'X'.
    • O = strengen skal spilles på.
    • X = strengen skal IKKE spilles på.
  6. Til venstre ser vi tallene 1, 2, 3, 4 og 5. Disse viser hvilket bånd som er utgangspunkt for grepet.

D

1.

2.

3.

4.

5.

  • X
  • X
  • O
  •  
  •  
  •  
  • D
  • A
  • D
  • F#




×

E m

1.

2.

3.

4.

5.

  • O
  •  
  •  
  • O
  • O
  • O
  • E
  • H
  • E
  • G
  • H
  • E

A m

1.

2.

3.

4.

5.

  • X
  • O
  •  
  •  
  •  
  • O
  • A
  • E
  • A
  • C
  • E

H 7

1.

2.

3.

4.

5.

  • X
  •  
  •  
  •  
  • O
  •  
  • H
  • D#
  • A
  • H
  • F#
 

Relaterte videoer

 

Flere videoer av Johan Tobias Bergstrøm

 

YouTube

 




 

Copyright 2008-2017 onlinegitar.no