Videoleksjoner

Gun And The E-Kid [Hedvig Mollestad Trio]

Loading the player...
  • Nivå: Middels 7/10
  • Lengde: 15.53 min.
  • Lærer: Hedvig Mollestad Thomassen
  • Sjanger: Rock
  • Opplastet: 13.03.2016
  • Instrument: Elektrisk


(Denne tjenesten tilbys av onlinegitar.no. Musikken er gjengitt med tillatelse fra TONO. Uautorisert lenking, videreføring eller kopiering er ulovlig.)

Besifring/tab  

Gun And The E-Kid [Hedvig Mollestad Trio]

DEL 1:
e||------------------------------------------------------|
H||------------------------------------------------------|
G||*-----------------------------------------------------|
D||*--9------------------------6h8-----------------------|
A||-------7---7-----5h7---7--------7---7-----5h7---7-----|
E||---------0-----0-----0----0-------0-----0-----0-----0-|


e|--------------------------------------------------||
H|--------------------------------------------------||
G|-------------------------------------------------*||
D|--5----------------------------------------------*||
A|------7---7-----------/7---0-------------5h7p5----||
E|--------0-----0-5p3-0--------5---5-7---7----------||


Siste gangen:
e|--------------------|
H|--------------------|
G|-----------------0--|
D|-----------0-2-3----|
A|-0---0-2------------|
E|--------------------|


e|-----------------------------------------------------|
H|--------------------------/4-------------------------|
G|--1---1---1-----1---1---1----------------------------|
D|------------3---------3--------6-4-6---6-4-6-4-6---6-|
A|-----------------------------------------------------|
E|-----------------------------------------------------|

     tr
e|-----------------------------|
H|-----------------------------|
G|--4(5)4----------------------|
D|--------6-4-6---4------------|
A|------------------6-5--2-----|
E|--------------------------2--|


e|------------------------------------------------|
H|------------------------------------------------|
G|------------------------------------------------|
D|----------------------------------9-10-11-9-10--|
A|--------2---3-4---4---7-8-9---9-----------------|
E|--4---4-----------------------------------------|



e|--16---------------------------|
H|--19b--12----9------6----------|
G|-------14b--11b-----8b---------|
D|-------------------------------|
A|-------------------------------|
E|------------------------4--1---|


e|----------------------------------------------|
H|----------------------------------------------|
G|----------------------------------------------|
D|------1-1-----0-0-------------------0----(/9)-| til starten igjen...
A|--------------------------0---0-1-2---2-------|
E|--1-1-----1-1-----1-1-3-4---4-----------------|



DEL 2:
    1.                       2.
e||-------------------------|-----------------------|
H||-------------------------|-----------------------|
G||*------------------------|-----------------------|
D||*------------------------|-----------------------|
A||-------------------------|-----------------------|
E||---4--4--4-1---4--4--1-4-|-4--4--4-1---4--4--1-4-|

   3.                       4.
e|------------------------|------------------||
H|------------------------|------------------||
G|------------------------|-----------------*|| Rep. 6 ganger
D|------------------------|-----------------*||
A|------------------------|------------------||
E|--4--4--4-1---4--4--1-4-|-4--4--4-1---4--4-||



DEL 3:
6-takt:
e||-------------------------|-----------------------|
H||-------------------------|-----------------------|
G||*------------------------|-----------------------|
D||*------------------------|-----------------------|
A||-------------------------|-----------------------|
E||---4--4--4-1---4--4--1-4-|-4--4--4-1---4--4--1-4-|


e|------------------------|------------------------||
H|------------------------|------------------------||
G|------------------------|-----------------------*|| Rep. 4 ganger
D|------------------------|-----------------------*||
A|------------------------|------------------------||
E|--4--4--4-1---4--4--1-4-|-4--4--4-1---4--4--1-4--||


5-takt:
e||--------------------|------------------|
H||--------------------|------------------|
G||*-------------------|------------------|
D||*-------------------|------------------|
A||--------------------|------------------|
E||---4--4--4-1---4--4-|-4--4--4-1---4--4-|


e||--------------------|------------------||
H||--------------------|------------------||
G||*-------------------|-----------------*|| Rep. 4 ganger
D||*-------------------|-----------------*||
A||--------------------|------------------||
E||---4--4--4-1---4--4-|-4--4--4-1---4--4-||


6-takt:
e||-------------------------|-----------------------|
H||-------------------------|-----------------------|
G||*------------------------|-----------------------|
D||*------------------------|-----------------------|
A||-------------------------|-----------------------|
E||---4--4--4-1---4--4--1-4-|-4--4--4-1---4--4--1-4-|


e|------------------------|------------------------||
H|------------------------|------------------------||
G|------------------------|-----------------------*|| Rep. 4 ganger
D|------------------------|-----------------------*||
A|------------------------|------------------------||
E|--4--4--4-1---4--4--1-4-|-4--4--4-1---4--4--1-4--||


7-takt
e||----------------------------|--------------------------|
H||----------------------------|--------------------------|
G||*---------------------------|--------------------------|
D||*---------------------------|--------------------------|
A||----------------------------|--------------------------|
E||---4--4--4-1---4--4-1-4-4-1-|-4--4--4-1---4--4-1-4-4-1-|


e|------------------------|-------------------------------||
H|------------------------|-------------------------------||
G|------------------------|------------------------------*|| Rep. 4 ganger
D|------------------------|------------------------------*||
A|------------------------|-------------------------------||
E|---4--4--4-1---4--4-1-4-4-1-|-4--4--4-1---4--4-1-4-4-1--||


Tegnforklaring: / = slide opp \ = slide ned h = hammer-on p = pull-off t = tap (tapping med høyre hånd) b = bending r = bend tilbake(release) ~ = vibrato + = flageolett x = dempet tone * = repetisjonstegn ()= valgfritt / evt at tonen/akkorden fortsetter å klinge (fra forrige takt f.eks)

Gun And The E-Kid [Hedvig Mollestad Trio]


DEL 1:
e||------------------------------------------------------|
H||------------------------------------------------------|
G||*-----------------------------------------------------|
D||*--9------------------------6h8-----------------------|
A||-------7---7-----5h7---7--------7---7-----5h7---7-----|
E||---------0-----0-----0----0-------0-----0-----0-----0-|


e|--------------------------------------------------||
H|--------------------------------------------------||
G|-------------------------------------------------*||
D|--5----------------------------------------------*||
A|------7---7-----------/7---0-------------5h7p5----||
E|--------0-----0-5p3-0--------5---5-7---7----------||


Siste gangen:
e|--------------------|
H|--------------------|
G|-----------------0--|
D|-----------0-2-3----|
A|-0---0-2------------|
E|--------------------|


e|-----------------------------------------------------|
H|--------------------------/4-------------------------|
G|--1---1---1-----1---1---1----------------------------|
D|------------3---------3--------6-4-6---6-4-6-4-6---6-|
A|-----------------------------------------------------|
E|-----------------------------------------------------|

     tr
e|-----------------------------|
H|-----------------------------|
G|--4(5)4----------------------|
D|--------6-4-6---4------------|
A|------------------6-5--2-----|
E|--------------------------2--|


e|------------------------------------------------|
H|------------------------------------------------|
G|------------------------------------------------|
D|----------------------------------9-10-11-9-10--|
A|--------2---3-4---4---7-8-9---9-----------------|
E|--4---4-----------------------------------------|



e|--16---------------------------|
H|--19b--12----9------6----------|
G|-------14b--11b-----8b---------|
D|-------------------------------|
A|-------------------------------|
E|------------------------4--1---|


e|----------------------------------------------|
H|----------------------------------------------|
G|----------------------------------------------|
D|------1-1-----0-0-------------------0----(/9)-| til starten igjen...
A|--------------------------0---0-1-2---2-------|
E|--1-1-----1-1-----1-1-3-4---4-----------------|



DEL 2:
    1.                       2.
e||-------------------------|-----------------------|
H||-------------------------|-----------------------|
G||*------------------------|-----------------------|
D||*------------------------|-----------------------|
A||-------------------------|-----------------------|
E||---4--4--4-1---4--4--1-4-|-4--4--4-1---4--4--1-4-|

   3.                       4.
e|------------------------|------------------||
H|------------------------|------------------||
G|------------------------|-----------------*|| Rep. 6 ganger
D|------------------------|-----------------*||
A|------------------------|------------------||
E|--4--4--4-1---4--4--1-4-|-4--4--4-1---4--4-||



DEL 3:
6-takt:
e||-------------------------|-----------------------|
H||-------------------------|-----------------------|
G||*------------------------|-----------------------|
D||*------------------------|-----------------------|
A||-------------------------|-----------------------|
E||---4--4--4-1---4--4--1-4-|-4--4--4-1---4--4--1-4-|


e|------------------------|------------------------||
H|------------------------|------------------------||
G|------------------------|-----------------------*|| Rep. 4 ganger
D|------------------------|-----------------------*||
A|------------------------|------------------------||
E|--4--4--4-1---4--4--1-4-|-4--4--4-1---4--4--1-4--||


5-takt:
e||--------------------|------------------|
H||--------------------|------------------|
G||*-------------------|------------------|
D||*-------------------|------------------|
A||--------------------|------------------|
E||---4--4--4-1---4--4-|-4--4--4-1---4--4-|


e||--------------------|------------------||
H||--------------------|------------------||
G||*-------------------|-----------------*|| Rep. 4 ganger
D||*-------------------|-----------------*||
A||--------------------|------------------||
E||---4--4--4-1---4--4-|-4--4--4-1---4--4-||


6-takt:
e||-------------------------|-----------------------|
H||-------------------------|-----------------------|
G||*------------------------|-----------------------|
D||*------------------------|-----------------------|
A||-------------------------|-----------------------|
E||---4--4--4-1---4--4--1-4-|-4--4--4-1---4--4--1-4-|


e|------------------------|------------------------||
H|------------------------|------------------------||
G|------------------------|-----------------------*|| Rep. 4 ganger
D|------------------------|-----------------------*||
A|------------------------|------------------------||
E|--4--4--4-1---4--4--1-4-|-4--4--4-1---4--4--1-4--||


7-takt
e||----------------------------|--------------------------|
H||----------------------------|--------------------------|
G||*---------------------------|--------------------------|
D||*---------------------------|--------------------------|
A||----------------------------|--------------------------|
E||---4--4--4-1---4--4-1-4-4-1-|-4--4--4-1---4--4-1-4-4-1-|


e|------------------------|-------------------------------||
H|------------------------|-------------------------------||
G|------------------------|------------------------------*|| Rep. 4 ganger
D|------------------------|------------------------------*||
A|------------------------|-------------------------------||
E|---4--4--4-1---4--4-1-4-4-1-|-4--4--4-1---4--4-1-4-4-1--||


Tegnforklaring: / = slide opp \ = slide ned h = hammer-on p = pull-off t = tap (tapping med høyre hånd) b = bending r = bend tilbake(release) ~ = vibrato + = flageolett x = dempet tone * = repetisjonstegn ()= valgfritt / evt at tonen/akkorden fortsetter å klinge (fra forrige takt f.eks)
×
 

Artikkel

Grensesprengende Hedvig Mollestad Thomassen

Er du av typen som elsker å plassere gitarister og band i sjangerbåser? Da skal du slite når det kommer til Hedvig Mollestad Thomassen. Hun er en meget allsidig og spennende gitarist som de siste årene har gjort seg mer og mer bemerket, kanskje spesielt gjennom bandet Hedvig Mollestad trio.

Hedvig Mollestad Thomassen er oppvokst i Ålesund. Som 11-åring oppdaget hun moren sin kassegitar. I tenårene lyttet Hedvig mye til farens samling av rocke- og jazzplater. Som 15-åring rystet hun omgivelsene da hun valgte å ønske seg elektrisk gitar i stedet for bunad til konfirmasjonen.

Etter å ha gått på jazzlinja ved Norges Musikkhøgskole (med Jon Eberson som lærer) og fått ”Årets unge jazztalent”-prisen under Moldejazz i 2009, startet Mollestad Thomassen bandet Hedvig Mollestad Trio. Bandet består av Mollestad Thomassen på gitar, Ellen Brekken på bass og Ivar Loe Bjørnstad på trommer. Og det er når du hører på disse at du sliter hvis du absolutt må plassere ting i bås.

Når man lytter til denne trioen er det befriende fordi den krysser så mange sjangergrenser. Det virker som bandet har bestemt seg for å ikke gidde å bry seg om hva slags sjanger de ønsker å operere i. Det mest fremtredende i lydbildet er Mollestad Thomassens sugende gitarriff som bringer tankene til Led Zeppelin, Black Sabbath og Jimi Hendrix. Utrykket er røft og rocka, men ofte klines det til med jazz-inspirerte solopartier. Mollestad Thomassen får da vist hva hun har lært i jazzmiljøet på NMH og inspirasjonen fra jazz-gitarhelter som John Scofield og våre egne Jon Eberson og Terje Rypdal er tydelig. Likevel har Mollestad Thomassen et eget uttrykk i spillingen som gjør henne spennende og original. Instrumentalmusikk har potensial i seg til å bli litt kjedelig, men her er det så mye spennende som skjer at savnet av vokal er lik null.

Hedvig Mollestad Thomassen-leksjoner på onlinegitar.no:

    Trioen opptar mye av Hedvig Mollestad Thomassen sin tid, men hun har også spilt i andre band og prosjekter opp gjennom årene. Og cv’en er variert og fin: Gitarist i El doom and the born electric. Gitarist i VOM. Gitarist i Jarle Bernhoft sitt band. Gitarist i Jon Eberson Group. Gitarist for Hilde Marie Kjersem. Gitarist i Trondheim Jazzorkester.

    Diskografi Hedvig Mollestad Trio

    • Enfant Terrible (2014)
    • All of them witches (2013)
    • Shoot! (2011)

    Hedvig Mollestad trio er et meget bra liveband og selv i studio spilles låtene inn live for å bevare bandets særpreg: Det røffe, upolerte og levende. Her kan du se bandet live fra Parkteatret i Oslo i 2014:


     

    Relaterte videoer

     

    Flere videoer av Hedvig Mollestad Thomassen

     

    YouTube

     




     

    Copyright 2008-2017 onlinegitar.no