Videoleksjoner

Tico Tico, melodi

Loading the player...
  • Nivå: Middels 7/10
  • Lengde: 14.01 min.
  • Lærer: Johan Tobias Bergstrøm
  • Sjanger: Jazz
  • Opplastet: 21.03.2016
  • Instrument: Akustisk


(Denne tjenesten tilbys av onlinegitar.no. Musikken er gjengitt med tillatelse fra TONO. Uautorisert lenking, videreføring eller kopiering er ulovlig.)

Besifring/tab  

Tico Tico, melodi

[Zequinha de Abreu]


A-DEL:
e|----------|--------------------|-------------------|
H|----------|---------10---------|---------9---------|
G|----9-8-9-|-10-9---------9-8-9-|-10-9--------9-8-9-| 
D|----------|--------------------|-------------------|
A|----------|--------------------|-------------------|
E|----------|--------------------|-------------------|


e|------10-7----------|---------------------|----------10---8-------|
H|-----------9--------|--------------10-9-8-|----10-----------10----|
G|-10-9--------10-9-7-|---------------------|-10-----------------10-| 
D|--------------------|-10/-----------------|-----------------------|
A|--------------------|---------------------|-----------------------|
E|--------------------|---------------------|-----------------------|


e|---------8---8-7-6-|-7----------8-7----|-------------------|
H|---10--------------|-------7-10-----10-|-9-----------------|
G|-9-----------------|-----8-------------|-------------9-8-9-| 
D|-------------------|---9---------------|-------------------|
A|-------------------|-------------------|-------------------|
E|-------------------|-------------------|-------------------|


e|--------------------|-------------------|
H|---------10---------|---------9---------|
G|-10-9---------9-8-9-|-10-9--------9-8-9-| 
D|--------------------|-------------------|
A|--------------------|-------------------|
E|--------------------|-------------------|


e|------10-7----------|---------------------|----------10---8-------|
H|-----------9--------|--------------10-9-8-|----10-----------10----|
G|-10-9--------10-9-7-|---------------------|-10-----------------10-| 
D|--------------------|-10/-----------------|-----------------------|
A|--------------------|---------------------|-----------------------|
E|--------------------|---------------------|-----------------------|


e|---------8---8-7-6-|-7-7-6-7-12-10-8-7-|------------------|
H|---10--------------|-------------------|-10---------9---8-|
G|-9-----------------|-------------------|------------------| 
D|-------------------|-------------------|------------------| 
A|-------------------|-------------------|------------------| 
E|-------------------|-------------------|------------------| 



B-DEL:
e|---------------------|-------------------------|--------------------|
H|---------8------8--9-|-10-------------12-11-10-|-8------8------8--9-|
G|-------9------9------|-----10--10--------------|-----10-----10------| 
D|----10-----10--------|-------------------------|---9------9---------|
A|---------------------|-------------------------|--------------------|
E|---------------------|-------------------------|--------------------|


e|-----------------------|-------------------------|-----------------------|
H|-10-----------13-13-13-|-13-12-12-12-12-10-10-10-|-10-------------13--12-|
G|-----9--9--------------|-------------------------|----10---10------------| 
D|-----------------------|-------------------------|-----------------------|
A|-----------------------|-------------------------|-----------------------|
E|-----------------------|-------------------------|-----------------------|


e|-------------------------|-------------------|--------------------|
H|----------12-10-------10-|-8-----------9---8-|---------8------8-9-|
G|-------10----------10----|-9-----------------|-------9------9-----|
D|----12----------12-------|-10----------------|----10-----10-------|
A|-------------------------|-------------------|--------------------|
E|-------------------------|-------------------|--------------------|


e|-------------------------|-------------------|-----------------------|
H|-10-------------12-11-10-|-8------8------8-9-|-10-----------13-12-11-|
G|----10---10--------------|-----10-----10-----|----9---9--------------| 
D|-------------------------|---9------9--------|-----------------------|
A|-------------------------|-------------------|-----------------------|
E|-------------------------|-------------------|-----------------------|


e|------------10----------|-12-11-12-13---12---10-|----8-7-------------|
H|-10-9-10-12----13-12-13-|-----------------------|--------10-8--------|
G|------------------------|-----------------------|-------------10-9-7-| 
D|------------------------|-----------------------|--------------------|
A|------------------------|-----------------------|--------------------|
E|------------------------|-----------------------|--------------------|



          C-DEL:
e|-------------------0-||-5-------4--------0-|-2-------0--------0-|
H|-----------------2---||---------2------2---|---------2------2---|
G|---------------2-----||------2--2----2-----|------2--2----2-----| 
D|-10------------------||--------------------|--------------------|
A|---------------------||--------------------|--------------------|
E|---------------------||--------------------|--------------------|


e|-2----2----0-0-----2-|---2---0----------0-|-5-------4--------0-|
H|-2----2----2-2-----3-|---3---3--------3---|---------3------3---|
G|-2----2----3-3-----4-|-------4------4-----|------4--4----4-----| 
D|---------------------|--------------------|--------------------|
A|---------------------|--------------------|--------------------|
E|---------------------|--------------------|--------------------|


e|--2------0-----------|-2-0-2-0-2-0----2-|----2----0--------0-|
H|--3------3-----------|-3-3-3-3-3-3----2-|----2----2------2---|
G|--4------4-----------|-4-4-4-4-4-4----2-|----2----2----2-----| 
D|---------------------|------------------|--------------------|
A|---------------------|------------------|--------------------|
E|---------------------|------------------|--------------------|


e|-5-------4--------0-|-2-------0--------0-|-2-1-2-3-2-0-----|-----------------|
H|---------2------2---|---------2------2---|-------------3-2-|-0---0-2---------|
G|------2--2----2-----|------2--2----2-----|-----------------|---3-------------|
D|--------------------|--------------------|-----------------|-----------------|
A|--------------------|--------------------|-----------------|-----------------|
E|--------------------|--------------------|-----------------|-----------------|


e|----------------------|-9-10-11-12-14-12-10-9-|----------------------|-----------|
H|--------------9-10-12-|-----------------------|-12-10-9--------------|-----------|
G|---------9-11---------|-----------------------|---------11-9---------|-----------| 
D|-9-11-12--------------|-----------------------|--------------12-11-9-|-----------|
A|----------------------|-----------------------|----------------------|-12--------|
E|----------------------|-----------------------|----------------------|-----------|


e|----------------------|-9-10-11-12-14-12-10-9-|----------------------|
H|--------------9-10-12-|-----------------------|-12-10-9--------------|
G|---------9-11---------|-----------------------|---------11-9---------|
D|-9-11-12--------------|-----------------------|--------------12-11-9-|
A|----------------------|-----------------------|----------------------|
E|----------------------|-----------------------|----------------------|


e|---------------------|
H|----7----7-7---------|
G|----6----6-6---------| 
D|----7----7-7---------|
A|----7----7-7---------|
E|---------------------|


Tegnforklaring: / = slide opp \ = slide ned h = hammer-on p = pull-off t = tap (tapping med høyre hånd) b = bending r = bend tilbake(release) ~ = vibrato + = flageolett x = dempet tone * = repetisjonstegn ()= valgfritt / evt at tonen/akkorden fortsetter å klinge (fra forrige takt f.eks)

Tico Tico, melodi


[Zequinha de Abreu]


A-DEL:
e|----------|--------------------|-------------------|
H|----------|---------10---------|---------9---------|
G|----9-8-9-|-10-9---------9-8-9-|-10-9--------9-8-9-| 
D|----------|--------------------|-------------------|
A|----------|--------------------|-------------------|
E|----------|--------------------|-------------------|


e|------10-7----------|---------------------|----------10---8-------|
H|-----------9--------|--------------10-9-8-|----10-----------10----|
G|-10-9--------10-9-7-|---------------------|-10-----------------10-| 
D|--------------------|-10/-----------------|-----------------------|
A|--------------------|---------------------|-----------------------|
E|--------------------|---------------------|-----------------------|


e|---------8---8-7-6-|-7----------8-7----|-------------------|
H|---10--------------|-------7-10-----10-|-9-----------------|
G|-9-----------------|-----8-------------|-------------9-8-9-| 
D|-------------------|---9---------------|-------------------|
A|-------------------|-------------------|-------------------|
E|-------------------|-------------------|-------------------|


e|--------------------|-------------------|
H|---------10---------|---------9---------|
G|-10-9---------9-8-9-|-10-9--------9-8-9-| 
D|--------------------|-------------------|
A|--------------------|-------------------|
E|--------------------|-------------------|


e|------10-7----------|---------------------|----------10---8-------|
H|-----------9--------|--------------10-9-8-|----10-----------10----|
G|-10-9--------10-9-7-|---------------------|-10-----------------10-| 
D|--------------------|-10/-----------------|-----------------------|
A|--------------------|---------------------|-----------------------|
E|--------------------|---------------------|-----------------------|


e|---------8---8-7-6-|-7-7-6-7-12-10-8-7-|------------------|
H|---10--------------|-------------------|-10---------9---8-|
G|-9-----------------|-------------------|------------------| 
D|-------------------|-------------------|------------------| 
A|-------------------|-------------------|------------------| 
E|-------------------|-------------------|------------------| 



B-DEL:
e|---------------------|-------------------------|--------------------|
H|---------8------8--9-|-10-------------12-11-10-|-8------8------8--9-|
G|-------9------9------|-----10--10--------------|-----10-----10------| 
D|----10-----10--------|-------------------------|---9------9---------|
A|---------------------|-------------------------|--------------------|
E|---------------------|-------------------------|--------------------|


e|-----------------------|-------------------------|-----------------------|
H|-10-----------13-13-13-|-13-12-12-12-12-10-10-10-|-10-------------13--12-|
G|-----9--9--------------|-------------------------|----10---10------------| 
D|-----------------------|-------------------------|-----------------------|
A|-----------------------|-------------------------|-----------------------|
E|-----------------------|-------------------------|-----------------------|


e|-------------------------|-------------------|--------------------|
H|----------12-10-------10-|-8-----------9---8-|---------8------8-9-|
G|-------10----------10----|-9-----------------|-------9------9-----|
D|----12----------12-------|-10----------------|----10-----10-------|
A|-------------------------|-------------------|--------------------|
E|-------------------------|-------------------|--------------------|


e|-------------------------|-------------------|-----------------------|
H|-10-------------12-11-10-|-8------8------8-9-|-10-----------13-12-11-|
G|----10---10--------------|-----10-----10-----|----9---9--------------| 
D|-------------------------|---9------9--------|-----------------------|
A|-------------------------|-------------------|-----------------------|
E|-------------------------|-------------------|-----------------------|


e|------------10----------|-12-11-12-13---12---10-|----8-7-------------|
H|-10-9-10-12----13-12-13-|-----------------------|--------10-8--------|
G|------------------------|-----------------------|-------------10-9-7-| 
D|------------------------|-----------------------|--------------------|
A|------------------------|-----------------------|--------------------|
E|------------------------|-----------------------|--------------------|



          C-DEL:
e|-------------------0-||-5-------4--------0-|-2-------0--------0-|
H|-----------------2---||---------2------2---|---------2------2---|
G|---------------2-----||------2--2----2-----|------2--2----2-----| 
D|-10------------------||--------------------|--------------------|
A|---------------------||--------------------|--------------------|
E|---------------------||--------------------|--------------------|


e|-2----2----0-0-----2-|---2---0----------0-|-5-------4--------0-|
H|-2----2----2-2-----3-|---3---3--------3---|---------3------3---|
G|-2----2----3-3-----4-|-------4------4-----|------4--4----4-----| 
D|---------------------|--------------------|--------------------|
A|---------------------|--------------------|--------------------|
E|---------------------|--------------------|--------------------|


e|--2------0-----------|-2-0-2-0-2-0----2-|----2----0--------0-|
H|--3------3-----------|-3-3-3-3-3-3----2-|----2----2------2---|
G|--4------4-----------|-4-4-4-4-4-4----2-|----2----2----2-----| 
D|---------------------|------------------|--------------------|
A|---------------------|------------------|--------------------|
E|---------------------|------------------|--------------------|


e|-5-------4--------0-|-2-------0--------0-|-2-1-2-3-2-0-----|-----------------|
H|---------2------2---|---------2------2---|-------------3-2-|-0---0-2---------|
G|------2--2----2-----|------2--2----2-----|-----------------|---3-------------|
D|--------------------|--------------------|-----------------|-----------------|
A|--------------------|--------------------|-----------------|-----------------|
E|--------------------|--------------------|-----------------|-----------------|


e|----------------------|-9-10-11-12-14-12-10-9-|----------------------|-----------|
H|--------------9-10-12-|-----------------------|-12-10-9--------------|-----------|
G|---------9-11---------|-----------------------|---------11-9---------|-----------| 
D|-9-11-12--------------|-----------------------|--------------12-11-9-|-----------|
A|----------------------|-----------------------|----------------------|-12--------|
E|----------------------|-----------------------|----------------------|-----------|


e|----------------------|-9-10-11-12-14-12-10-9-|----------------------|
H|--------------9-10-12-|-----------------------|-12-10-9--------------|
G|---------9-11---------|-----------------------|---------11-9---------|
D|-9-11-12--------------|-----------------------|--------------12-11-9-|
A|----------------------|-----------------------|----------------------|
E|----------------------|-----------------------|----------------------|


e|---------------------|
H|----7----7-7---------|
G|----6----6-6---------| 
D|----7----7-7---------|
A|----7----7-7---------|
E|---------------------|


Tegnforklaring: / = slide opp \ = slide ned h = hammer-on p = pull-off t = tap (tapping med høyre hånd) b = bending r = bend tilbake(release) ~ = vibrato + = flageolett x = dempet tone * = repetisjonstegn ()= valgfritt / evt at tonen/akkorden fortsetter å klinge (fra forrige takt f.eks)
×
 

Relaterte videoer

 

Flere videoer av Johan Tobias Bergstrøm

 

YouTube