Videoleksjoner

Crazy [Willie Nelson]

Loading the player...
  • Nivå: Middels 5/10
  • Lengde: 11.33 min.
  • Lærer: Hans Frønes
  • Sjanger: Country
  • Opplastet: 28.12.2015
  • Instrument: Banjo


(Denne tjenesten tilbys av onlinegitar.no. Musikken er gjengitt med tillatelse fra TONO. Uautorisert lenking, videreføring eller kopiering er ulovlig.)

Besifring/tab  

Crazy [Willie Nelson]

    G                 G   F#  F  E           E7         
D|--------5-----------5-/-4-/-3--------2-----------0------|
H|--------3-----------3-/-2-/-1--------0-----------0------|
G|------4-----4-----4-4-/-3-/-2------1-----1-----1-----1--|
D|--5-----------5----------------2-----------2------------|
G|--------------------------------------------------------|


    Am
D|--------2-----------2-----------2-----------2------|
H|--------1-----------1-----------1-----------1------|
G|------2-----2-----2-----2-----2-----2-----2-----2--|
D|--2-----------2-----------2-----------2------------|
G|---------------------------------------------------|


    D
D|--------4-----------4-----------4-----------4------|
H|--------3-----------3-----------3-----------3------|
G|------2-----2-----2-----2-----2-----2-----2-----2--|
D|--4-----------4-----------4-----------4------------|
G|---------------------------------------------------|


    G                       D7 
D|--------5-----------5-----------0-----------4------|
H|--------3-----------3-----------1-----------1------|
G|------4-----4-----4-----4-----2-----2-----2-----2--|
D|--5-----------5-----------0-----------0------------|
G|---------------------------------------------------|


    G                G   F#  F   E          E7         
D|--------5-----------5-/-4-/-3--------2-----------0------|
H|--------3-----------3-/-2-/-1--------0-----------0------|
G|------4-----4-----4-4-/-3-/-2------1-----1-----1-----1--|
D|--5-----------5----------------2-----------2------------|
G|--------------------------------------------------------|


    Am
D|--------2-----------2-----------2-----------2------|
H|--------1-----------1-----------1-----------1------|
G|------2-----2-----2-----2-----2-----2-----2-----2--|
D|--2-----------2-----------2-----------2------------|
G|---------------------------------------------------|


    D
D|--------4-----------4-----------4-----------4------|
H|--------3-----------3-----------3-----------3------|
G|------2-----2-----2-----2-----2-----2-----2-----2--|
D|--4-----------4-----------4-----------4------------|
G|---------------------------------------------------|


    G                       G7 
D|--------5-----------5-----------3-----------3------|
H|--------3-----------3-----------3-----------3------|
G|------4-----4-----4-----4-----4-----4-----4-----4--|
D|--5-----------5-----------5-----------5------------|
G|---------------------------------------------------|


    C
D|--------5-----------5-----------5-----------5------|
H|--------5-----------5-----------5-----------5------|
G|------5-----5-----5-----5-----5-----5-----5-----5--|
D|--5-----------5-----------5-----------5------------|
G|---------------------------------------------------|


    G                       G  F# G  G#
D|--------5-----------5-----5--4--5--6--|
H|--------3-----------3-----3--2--3--4--|
G|------4-----4-----4-----4-4--3--4--5--|
D|--5-----------5-----------5--4--5--6--|
G|--------------------------------------|


   A                        A7
D|--------7-----------7-----------5-----------5------|
H|--------5-----------5-----------5-----------5------|
G|------6-----6-----6-----6-----6-----6-----6-----6--|
D|--7-----------7-----------7-----------7------------|
G|---------------------------------------------------|


   D                       D7
D|--------4-----------4-----------0-----------0------|
H|--------3-----------3-----------1-----------1------|
G|------2-----2-----2-----2-----2-----2-----2-----2--|
D|--4-----------4-----------0-----------4------------|
G|---------------------------------------------------|


    G                G   F#  F  E          E7         
D|--------5-----------5-/-4-/-3--------2-----------0------|
H|--------3-----------3-/-2-/-1--------0-----------0------|
G|------4-----4-----4-4-/-3-/-2------1-----1-----1-----1--|
D|--5-----------5----------------2-----------2------------|
G|--------------------------------------------------------|


    Am               E7  Am
D|--------2-----------0--------2-----------2------|
H|--------1-----------0--------1-----------1------|
G|------2-----2-----2--1-----2-----2-----2-----2--|
D|--2-----------2--------2-----------2------------|
G|------------------------------------------------|


   C           Hm           Am         Hm6  
D|--------5-----------4-----------2-----------0------|
H|--------5-----------3-----------1-----------0------|
G|------5-----5-----4-----4-----2-----2-----1-----1--|
D|--5-----------4-----------2-----------0------------|
G|---------------------------------------------------|


   Am           D7         G
D|--------2----------0-----------5--------5---------|
H|--------1----------1-----------3--------3---------|
G|------2-----2-----2----2-----4-----4---------------|
D|--2-----------0----------5-----------5------------|
G|--------------------------------------------------|




G  G-F#-F-E          E7         Am
Crazy, I'm crazy for feeling so lonely
    D                           G   D7 (D) 
I'm crazy, crazy for feeling so blue
G  G-F#-F-E E7               Am
I knew      you'd love me as long as you wanted
          D                              G      G7        
And then someday you'd leave me for somebody new
C                          G    G-F#-G-G#
Worry, why do I let myself worry?
A          A7                      D  D7 
Wond'ring  what in the world did I do?
G  G-F#-F-E   E7                          Am      E7  Am
Crazy     for thinking that my love could hold you
C              Hm        Am        Hm6        
I'm crazy for trying and crazy for crying
        Am        D         G
And I'm crazy for loving you

Crazy [Willie Nelson]


    G                 G   F#  F  E           E7         
D|--------5-----------5-/-4-/-3--------2-----------0------|
H|--------3-----------3-/-2-/-1--------0-----------0------|
G|------4-----4-----4-4-/-3-/-2------1-----1-----1-----1--|
D|--5-----------5----------------2-----------2------------|
G|--------------------------------------------------------|


    Am
D|--------2-----------2-----------2-----------2------|
H|--------1-----------1-----------1-----------1------|
G|------2-----2-----2-----2-----2-----2-----2-----2--|
D|--2-----------2-----------2-----------2------------|
G|---------------------------------------------------|


    D
D|--------4-----------4-----------4-----------4------|
H|--------3-----------3-----------3-----------3------|
G|------2-----2-----2-----2-----2-----2-----2-----2--|
D|--4-----------4-----------4-----------4------------|
G|---------------------------------------------------|


    G                       D7 
D|--------5-----------5-----------0-----------4------|
H|--------3-----------3-----------1-----------1------|
G|------4-----4-----4-----4-----2-----2-----2-----2--|
D|--5-----------5-----------0-----------0------------|
G|---------------------------------------------------|


    G                G   F#  F   E          E7         
D|--------5-----------5-/-4-/-3--------2-----------0------|
H|--------3-----------3-/-2-/-1--------0-----------0------|
G|------4-----4-----4-4-/-3-/-2------1-----1-----1-----1--|
D|--5-----------5----------------2-----------2------------|
G|--------------------------------------------------------|


    Am
D|--------2-----------2-----------2-----------2------|
H|--------1-----------1-----------1-----------1------|
G|------2-----2-----2-----2-----2-----2-----2-----2--|
D|--2-----------2-----------2-----------2------------|
G|---------------------------------------------------|


    D
D|--------4-----------4-----------4-----------4------|
H|--------3-----------3-----------3-----------3------|
G|------2-----2-----2-----2-----2-----2-----2-----2--|
D|--4-----------4-----------4-----------4------------|
G|---------------------------------------------------|


    G                       G7 
D|--------5-----------5-----------3-----------3------|
H|--------3-----------3-----------3-----------3------|
G|------4-----4-----4-----4-----4-----4-----4-----4--|
D|--5-----------5-----------5-----------5------------|
G|---------------------------------------------------|


    C
D|--------5-----------5-----------5-----------5------|
H|--------5-----------5-----------5-----------5------|
G|------5-----5-----5-----5-----5-----5-----5-----5--|
D|--5-----------5-----------5-----------5------------|
G|---------------------------------------------------|


    G                       G  F# G  G#
D|--------5-----------5-----5--4--5--6--|
H|--------3-----------3-----3--2--3--4--|
G|------4-----4-----4-----4-4--3--4--5--|
D|--5-----------5-----------5--4--5--6--|
G|--------------------------------------|


   A                        A7
D|--------7-----------7-----------5-----------5------|
H|--------5-----------5-----------5-----------5------|
G|------6-----6-----6-----6-----6-----6-----6-----6--|
D|--7-----------7-----------7-----------7------------|
G|---------------------------------------------------|


   D                       D7
D|--------4-----------4-----------0-----------0------|
H|--------3-----------3-----------1-----------1------|
G|------2-----2-----2-----2-----2-----2-----2-----2--|
D|--4-----------4-----------0-----------4------------|
G|---------------------------------------------------|


    G                G   F#  F  E          E7         
D|--------5-----------5-/-4-/-3--------2-----------0------|
H|--------3-----------3-/-2-/-1--------0-----------0------|
G|------4-----4-----4-4-/-3-/-2------1-----1-----1-----1--|
D|--5-----------5----------------2-----------2------------|
G|--------------------------------------------------------|


    Am               E7  Am
D|--------2-----------0--------2-----------2------|
H|--------1-----------0--------1-----------1------|
G|------2-----2-----2--1-----2-----2-----2-----2--|
D|--2-----------2--------2-----------2------------|
G|------------------------------------------------|


   C           Hm           Am         Hm6  
D|--------5-----------4-----------2-----------0------|
H|--------5-----------3-----------1-----------0------|
G|------5-----5-----4-----4-----2-----2-----1-----1--|
D|--5-----------4-----------2-----------0------------|
G|---------------------------------------------------|


   Am           D7         G
D|--------2----------0-----------5--------5---------|
H|--------1----------1-----------3--------3---------|
G|------2-----2-----2----2-----4-----4---------------|
D|--2-----------0----------5-----------5------------|
G|--------------------------------------------------|




G  G-F#-F-E          E7         Am
Crazy, I'm crazy for feeling so lonely
    D                           G   D7 (D) 
I'm crazy, crazy for feeling so blue
G  G-F#-F-E E7               Am
I knew      you'd love me as long as you wanted
          D                              G      G7        
And then someday you'd leave me for somebody new
C                          G    G-F#-G-G#
Worry, why do I let myself worry?
A          A7                      D  D7 
Wond'ring  what in the world did I do?
G  G-F#-F-E   E7                          Am      E7  Am
Crazy     for thinking that my love could hold you
C              Hm        Am        Hm6        
I'm crazy for trying and crazy for crying
        Am        D         G
And I'm crazy for loving you
×
 

Banjo grep   

Om banjo grepsdiagrammet


Vi bruker akkorden D7 som eksempel:

  1. Først: For at det skal være tydelig å se grepene har vi ikke tatt med femte strengen i diagrammet. Det er en G - streng.
  2. De vertikale strekene viser banjoens 4 strenger. Streken til venstre er banjoens fjerde streng.
  3. De horisontale strekene viser banjoens bånd. I utgangspunktet vises halsens 5 første bånd, men hvis det er grep som tas høyere opp på halsen vil det på venstre side av diagrammet stå hvilket bånd man kan orientere seg ut fra.
  4. De svarte prikkene viser hvor vi skal legge fingrene på halsen, og tallene inni prikkene viser hvilke fingre vi skal bruke for å ta grepet.
  5. Bokstavene D A C D forteller navnet på notene på strengene som spilles.
  6. Øverst på diagrammet ser vi symbolet 'O' vist to ganger.
    1. O = strengen skal spilles på.
    2. X = strengen skal IKKE spilles på.
  7. Til venstre ser vi tallene 1, 2, 3, 4 og 5. Disse viser hvilket bånd som er utgangspunkt for grepet.

D 7

1.

2.

3.

4.

5.

  • O
  •  
  •  
  • O
  • D
  • A
  • C
  • D




×

G

1.

2.

3.

4.

5.

  •  
  •  
  •  
  •  
  • G
  • H
  • D
  • G

F#

1.

2.

3.

4.

5.

  •  
  •  
  •  
  •  
  • F#
  • A#
  • C#
  • F#

F

1.

2.

3.

4.

5.

  •  
  •  
  •  
  •  
  • F
  • A
  • C
  • F

E

4.

5.

6.

7.

8.

  •  
  •  
  •  
  •  
  • G#
  • H
  • E
  • G#

E 7

1.

2.

3.

4.

5.

  •  
  •  
  • O
  • O
  • E
  • G#
  • H
  • D

A m

1.

2.

3.

4.

5.

  •  
  •  
  •  
  •  
  • E
  • A
  • C
  • E

D /F#

2.

3.

4.

5.

6.

  •  
  •  
  •  
  •  
  • F#
  • A
  • D
  • F#

G 7

3.

4.

5.

6.

7.

  •  
  •  
  •  
  •  
  • G
  • H
  • D
  • F

C

1.

2.

3.

4.

5.

  •  
  •  
  •  
  •  
  • G
  • C
  • E
  • G

G#

4.

5.

6.

7.

8.

  •  
  •  
  •  
  •  
  • G#
  • C
  • D#
  • G#

A

5.

6.

7.

8.

9.

  •  
  •  
  •  
  •  
  • A
  • C#
  • E
  • A

A 7

5.

6.

7.

8.

9.

  •  
  •  
  •  
  •  
  • A
  • C#
  • E
  • G

H m

1.

2.

3.

4.

5.

  •  
  •  
  •  
  •  
  • F#
  • H
  • D
  • F#

H m6

1.

2.

3.

4.

5.

  • O
  •  
  • O
  • O
  • D
  • G#
  • H
  • D
 

Relaterte videoer

 

YouTube