Videoleksjoner

Hotel California - solo [Eagles]

Loading the player...
  • Nivå: Viderekommet 7/10
  • Lengde: 7.54 min.
  • Lærer: Asbjørn Lerheim
  • Sjanger: Rock
  • Opplastet: 04.07.2015
  • Instrument: Elektrisk


(Denne tjenesten tilbys av onlinegitar.no. Musikken er gjengitt med tillatelse fra TONO. Uautorisert lenking, videreføring eller kopiering er ulovlig.)

Besifring/tab  

Hotel California - solo [Eagles]

e|--------------------------------|----------------------------------|
H|--------10--12b----10--12-------|-------7--------------------------|
G|-9-/11---------------------9----|--7h9-----7---------4h7p4---------|
D|--------------------------------|-------------8-------------7b-----|
A|--------------------------------|----------------------------------|
E|--------------------------------|----------------------------------|


e|--------------------|-------------------------| 
H|-------7------------|-------7-----------------| 
G|--7h9-----7---------|--7h9-----7--------------| 
D|-------------9p8-9--|-------------9--8--9--7--| 
A|--------------------|-------------------------| 
E|--------------------|-------------------------| 


e|-------10-------------------|--7-----10b---10--10r--| 
H|--10b------10r--7--10--8b---|-----7-----------------| 
G|----------------------------|-----------------------| 
D|----------------------------|-----------------------| 
A|----------------------------|-----------------------| 
E|----------------------------|-----------------------|


e|--7-------10------------|------10--------------------| 
H|-----10b------10r--8----|----------------------------| 
G|------------------------|--9b------9r--7--7--6--7----| 
D|------------------------|----------------------------| 
A|------------------------|----------------------------| 
E|------------------------|----------------------------| 


e|-------------------------------------------|
H|--------7b--7b-----------7b--7b--7b--------|
G|--7--9----------9--7--9--------------9--7--|
D|-------------------------------------------|
A|-------------------------------------------|
E|-------------------------------------------|


e|--------------------7---------------|------------------|
H|------7--10------7------------------|------7--10-------|
G|--9b---------9b--------9br7--9b-----|--9b---------9b---|
D|------------------------------------|------------------|
A|------------------------------------|------------------| 
E|------------------------------------|------------------| 


e|-----7------7--7------7--7--|-------------------------| 
H|--7---------7--7------7--7--|-------------------------| 
G|--------9b--------9b--------|--9br7--9--7--9b/--------| 
D|----------------------------|-------------------------| 
A|----------------------------|-------------------------| 
E|----------------------------|-------------------------| 


e|------------------------------7----------|---------10-----------------------| 
H|-----------------------10b-------10--7---|--10/12------10--12--11--10--9----| 
G|--12br--9--11----------------------------|----------------------------------| 
D|---------------12b--9--------------------|----------------------------------| 
A|-----------------------------------------|----------------------------------| 
E|-----------------------------------------|----------------------------------| 


e|----------------------------17--------------------| 
H|-------12--15--17--15--17b------17r--15--17--15---| 
G|--14b---------------------------------------------| 
D|--------------------------------------------------| 
A|--------------------------------------------------| 
E|--------------------------------------------------| 


e|-------15--16--17--19-----------------|---------------17--17----------------------| 
H|--17b------------------17r--15----17--|--17p15--17b------------17r--17b--17r--15--| 
G|--------------------------------------|-------------------------------------------| 
D|--------------------------------------|-------------------------------------------| 
A|--------------------------------------|-------------------------------------------| 
E|--------------------------------------|-------------------------------------------| 



e|-------17--17------------------19------|---------10---------10--------------6----| 
H|--17b----------17rb--14br--12----------|--13/15------13/15-----------------------| 
G|---------------------------------------|------------------------11/4--4--3-------| 
D|---------------------------------------|-----------------------------------------| 
A|---------------------------------------|-----------------------------------------| 
E|---------------------------------------|-----------------------------------------| 


e|--12b---12--12--12--12--12--12--12--12--12--|--12p10------12--10--------| 
H|--------------------------------------------|---------12----------12----| 
G|--------------------------------------------|---------------------------| 
D|--------------------------------------------|---------------------------| 
A|--------------------------------------------|---------------------------| 
E|--------------------------------------------|---------------------------| 


e|---------------------------|------7-------------------------------------------------| 
H|--10-----------------10----|------------10-----7------------------------------------| 
G|------11/9--7--9/11--------|--9b-----9------7-----7--9-----7------------------------| 
D|---------------------------|----------------------------9--------7---------------7--| 
A|---------------------------|----------------------------------9-----9/7--5--7/9-----| 
E|---------------------------|--------------------------------------------------------| 


e|--7-----------------|----------------7--------------------| 
H|-----10--7----------|-7--8----8--10-----11----11--12--14--| 
G|------------9br7----|-7--9--------------11----------------| 
D|--------------------|-------------------------------------| 
A|--------------------|-------------------------------------| 
E|--------------------|-------------------------------------| 


e|---14----------14----------14----------14----------14----------| 
H|-------15----------15----------15----------15----------15------| 
G|*----------16----------16----------16----------16----------16--| 
D|*--------------------------------------------------------------| 
A|---------------------------------------------------------------| 
E|---------------------------------------------------------------| 


e|--12----------12----------12------15/18---------| 
H|------14----------14----------14----------------| 
G|----------15----------15------------------------| 
D|------------------------------------------------| 
A|------------------------------------------------| 
E|------------------------------------------------| 


e|--12----------12----------12----------12----------12----------| 
H|------14----------14----------14----------14----------14------| 
G|----------14----------14----------14----------14----------14--| 
D|--------------------------------------------------------------| 
A|--------------------------------------------------------------| 
E|--------------------------------------------------------------| 


e|--10----------10----------10------13/16--------| 
H|------12----------12----------12---------------| 
G|----------13----------13-----------------------| 
D|-----------------------------------------------| 
A|-----------------------------------------------| 
E|-----------------------------------------------| 


e|--10----------10----------10----------10----------10----------| 
H|------12----------12----------12----------12----------12------| 
G|----------12----------12----------12----------12----------12--| 
D|--------------------------------------------------------------| 
A|--------------------------------------------------------------| 
E|--------------------------------------------------------------| 


e|--10----------10----------10------12/14---------| 
H|------10----------10----------10----------------| 
G|----------11----------11------------------------| 
D|------------------------------------------------| 
A|------------------------------------------------| 
E|------------------------------------------------| 


e|--7--------7--------7--------7--------7--------| 
H|-----8--------8--------8--------8--------8-----| 
G|--------9--------9--------9--------9--------9--| 
D|-----------------------------------------------| 
A|-----------------------------------------------| 
E|-----------------------------------------------| 


e|--9----------9----------9------12/14------------| 
H|-----11---------11---------11-------------------| 
G|---------11---------11-------------------------*| 
D|-----------------------------------------------*| 
A|------------------------------------------------| 
E|------------------------------------------------| 


Tegnforklaring: / = slide opp \ = slide ned h = hammer-on p = pull-off t = tap (tapping med høyre hånd) b = bending r = bend tilbake(release) ~ = vibrato + = flageolett x = dempet tone * = repetisjonstegn ()= valgfritt / evt at tonen/akkorden fortsetter å klinge (fra forrige takt f.eks)

Hotel California - solo [Eagles]


e|--------------------------------|----------------------------------|
H|--------10--12b----10--12-------|-------7--------------------------|
G|-9-/11---------------------9----|--7h9-----7---------4h7p4---------|
D|--------------------------------|-------------8-------------7b-----|
A|--------------------------------|----------------------------------|
E|--------------------------------|----------------------------------|


e|--------------------|-------------------------| 
H|-------7------------|-------7-----------------| 
G|--7h9-----7---------|--7h9-----7--------------| 
D|-------------9p8-9--|-------------9--8--9--7--| 
A|--------------------|-------------------------| 
E|--------------------|-------------------------| 


e|-------10-------------------|--7-----10b---10--10r--| 
H|--10b------10r--7--10--8b---|-----7-----------------| 
G|----------------------------|-----------------------| 
D|----------------------------|-----------------------| 
A|----------------------------|-----------------------| 
E|----------------------------|-----------------------|


e|--7-------10------------|------10--------------------| 
H|-----10b------10r--8----|----------------------------| 
G|------------------------|--9b------9r--7--7--6--7----| 
D|------------------------|----------------------------| 
A|------------------------|----------------------------| 
E|------------------------|----------------------------| 


e|-------------------------------------------|
H|--------7b--7b-----------7b--7b--7b--------|
G|--7--9----------9--7--9--------------9--7--|
D|-------------------------------------------|
A|-------------------------------------------|
E|-------------------------------------------|


e|--------------------7---------------|------------------|
H|------7--10------7------------------|------7--10-------|
G|--9b---------9b--------9br7--9b-----|--9b---------9b---|
D|------------------------------------|------------------|
A|------------------------------------|------------------| 
E|------------------------------------|------------------| 


e|-----7------7--7------7--7--|-------------------------| 
H|--7---------7--7------7--7--|-------------------------| 
G|--------9b--------9b--------|--9br7--9--7--9b/--------| 
D|----------------------------|-------------------------| 
A|----------------------------|-------------------------| 
E|----------------------------|-------------------------| 


e|------------------------------7----------|---------10-----------------------| 
H|-----------------------10b-------10--7---|--10/12------10--12--11--10--9----| 
G|--12br--9--11----------------------------|----------------------------------| 
D|---------------12b--9--------------------|----------------------------------| 
A|-----------------------------------------|----------------------------------| 
E|-----------------------------------------|----------------------------------| 


e|----------------------------17--------------------| 
H|-------12--15--17--15--17b------17r--15--17--15---| 
G|--14b---------------------------------------------| 
D|--------------------------------------------------| 
A|--------------------------------------------------| 
E|--------------------------------------------------| 


e|-------15--16--17--19-----------------|---------------17--17----------------------| 
H|--17b------------------17r--15----17--|--17p15--17b------------17r--17b--17r--15--| 
G|--------------------------------------|-------------------------------------------| 
D|--------------------------------------|-------------------------------------------| 
A|--------------------------------------|-------------------------------------------| 
E|--------------------------------------|-------------------------------------------| 



e|-------17--17------------------19------|---------10---------10--------------6----| 
H|--17b----------17rb--14br--12----------|--13/15------13/15-----------------------| 
G|---------------------------------------|------------------------11/4--4--3-------| 
D|---------------------------------------|-----------------------------------------| 
A|---------------------------------------|-----------------------------------------| 
E|---------------------------------------|-----------------------------------------| 


e|--12b---12--12--12--12--12--12--12--12--12--|--12p10------12--10--------| 
H|--------------------------------------------|---------12----------12----| 
G|--------------------------------------------|---------------------------| 
D|--------------------------------------------|---------------------------| 
A|--------------------------------------------|---------------------------| 
E|--------------------------------------------|---------------------------| 


e|---------------------------|------7-------------------------------------------------| 
H|--10-----------------10----|------------10-----7------------------------------------| 
G|------11/9--7--9/11--------|--9b-----9------7-----7--9-----7------------------------| 
D|---------------------------|----------------------------9--------7---------------7--| 
A|---------------------------|----------------------------------9-----9/7--5--7/9-----| 
E|---------------------------|--------------------------------------------------------| 


e|--7-----------------|----------------7--------------------| 
H|-----10--7----------|-7--8----8--10-----11----11--12--14--| 
G|------------9br7----|-7--9--------------11----------------| 
D|--------------------|-------------------------------------| 
A|--------------------|-------------------------------------| 
E|--------------------|-------------------------------------| 


e|---14----------14----------14----------14----------14----------| 
H|-------15----------15----------15----------15----------15------| 
G|*----------16----------16----------16----------16----------16--| 
D|*--------------------------------------------------------------| 
A|---------------------------------------------------------------| 
E|---------------------------------------------------------------| 


e|--12----------12----------12------15/18---------| 
H|------14----------14----------14----------------| 
G|----------15----------15------------------------| 
D|------------------------------------------------| 
A|------------------------------------------------| 
E|------------------------------------------------| 


e|--12----------12----------12----------12----------12----------| 
H|------14----------14----------14----------14----------14------| 
G|----------14----------14----------14----------14----------14--| 
D|--------------------------------------------------------------| 
A|--------------------------------------------------------------| 
E|--------------------------------------------------------------| 


e|--10----------10----------10------13/16--------| 
H|------12----------12----------12---------------| 
G|----------13----------13-----------------------| 
D|-----------------------------------------------| 
A|-----------------------------------------------| 
E|-----------------------------------------------| 


e|--10----------10----------10----------10----------10----------| 
H|------12----------12----------12----------12----------12------| 
G|----------12----------12----------12----------12----------12--| 
D|--------------------------------------------------------------| 
A|--------------------------------------------------------------| 
E|--------------------------------------------------------------| 


e|--10----------10----------10------12/14---------| 
H|------10----------10----------10----------------| 
G|----------11----------11------------------------| 
D|------------------------------------------------| 
A|------------------------------------------------| 
E|------------------------------------------------| 


e|--7--------7--------7--------7--------7--------| 
H|-----8--------8--------8--------8--------8-----| 
G|--------9--------9--------9--------9--------9--| 
D|-----------------------------------------------| 
A|-----------------------------------------------| 
E|-----------------------------------------------| 


e|--9----------9----------9------12/14------------| 
H|-----11---------11---------11-------------------| 
G|---------11---------11-------------------------*| 
D|-----------------------------------------------*| 
A|------------------------------------------------| 
E|------------------------------------------------| 


Tegnforklaring: / = slide opp \ = slide ned h = hammer-on p = pull-off t = tap (tapping med høyre hånd) b = bending r = bend tilbake(release) ~ = vibrato + = flageolett x = dempet tone * = repetisjonstegn ()= valgfritt / evt at tonen/akkorden fortsetter å klinge (fra forrige takt f.eks)
×
 

Relaterte videoer

 

Flere videoer av Asbjørn Lerheim

 

YouTube