Dagens videoleksjon 1

Django`s Tiger

Vi pangåpner Django-helgen med Django Reinhardts Django´s Tiger. Mye Django her, men det er jo det denne helgen handler om. Tidligere gitarist for Satyricon - Gildas Le Pape - har penslet inn på string-swing-sporet og det er herlig å høre jazz-riffene sitter som ei kule. Og det ser jo så lett ut.


Loading the player...

 


Tabs / besifring:

Django`s Tiger [Django Reinhardt]



Warning: include(): Filename cannot be empty in /home/mwh5302/public_html/includes/tema_video.inc.php on line 215

Warning: include(): Failed opening '' for inclusion (include_path='.:/usr/lib/php:/usr/local/lib/php') in /home/mwh5302/public_html/includes/tema_video.inc.php on line 215
×

Se video, tabs, grep og alt annet til Django`s Tiger på videosiden [medlem]

Dagens videoleksjon 2

Coquette

Toucé-gitarist Johan Tobias Bergstrøm fortsetter festen og lærer oss Django Reinhardts vakre låt Coquette. Detta blir bra!


Loading the player...

 


Tabs / besifring:

Coquette, melodi [Django Reinhardt]

    D6/9                             Em7                 A7    
e|--10-----7-----10-7-10-7---------|-----------------------------------|
H|---------------------------7--8/-|-10--10-10-10--8--7----------------|
G|---------------------------------|---------------------9-------------|
D|---------------------------------|-----------------------------------|
A|---------------------------------|-----------------------------------|
E|---------------------------------|-----------------------------------|


    Em7                A7            D6/9 
e|---------------------------------|----------------------------x--x---|
H|----10-10--10--8--7--------------|-------------10--7----------x--x---|
G|---------------------9---9-------|-7-7h9p7-6-7--------7-------6--6---|
D|---------------------------------|-----------------------7----5--5---|
A|---------------------------------|----------------------------x--x---|
E|---------------------------------|----------------------------5--5---|


    D6/9                             Em7                 A7    
e|--10-----7-----10-7-10-7---------|-----------------------------------|
H|---------------------------7--8/-|-10--10-10-10--8--7----------------|
G|---------------------------------|---------------------9-------------|
D|---------------------------------|-----------------------------------|
A|---------------------------------|-----------------------------------|
E|---------------------------------|-----------------------------------|


    Em7                A7            D6/9 
e|---------------------------------|-----------------------------------------|
H|----10-10--10--8--7--------------|-------------10--7-----------------------|
G|---------------------9---9-------|-7-7h9p7-6-7--------7--------------------|
D|---------------------------------|-----------------------7--h9p7-6-7-b8--8-|
A|---------------------------------|-----------------------------------------|
E|---------------------------------|-----------------------------------------|


    D7                               G6/9
e|---------------------------------|------------3--3-------------------|
H|---------------------------------|------------3--3-------------------|
G|---------------------------------|------------2--2-------------------|
D|--7--------5-5h7p5-4-5-5h7p5-4-5-|-5----------2--2-------------------|
A|---------------------------------|-----------------------------------|
E|---------------------------------|-----------------------------------|


    E7
e|--3-2-1-0-----------------------------------------|
H|----------3-2-1-0---------------------------------|
G|------------------3-2-1-0-------------------------|
D|--------------------------3-2-1-0-----------------|
A|----------------------------------3-2-1-0---------|
E|------------------------------------------3-2-1-0-|


    A7         
e|--------------------------------------5-----------|
H|--------------------------------5-4-5-------------|
G|--------------------------6-5-6-------------------|
D|--------------------7-6-7-------------------------|
A|--------4-3-4-7-6-7-------------------------------|
E|--5-4-5-------------------------------------------|


    D6/9                             Em7                 A7    
e|--10-----7-----10-7-10-7---------|-----------------------------------|
H|---------------------------7--8/-|-10------------8--7-----------7-8/-|
G|---------------------------------|---------------------9-------------|
D|---------------------------------|-----------------------------------|
A|---------------------------------|-----------------------------------|
E|---------------------------------|-----------------------------------|


    Em7          A7         A6-9/C# (grepet flyttes, se video)  
e|--------------------------5-4-5-6-7-8-9-10---------------------|
H|--10-----8--7------------------------------------5-------------|
G|---------------9---------------------------------7-------------|
D|-------------------------------------------------7-------------|
A|-------------------------------------------------5-------------|
E|---------------------------------------------------------------|

Coquette, melodi [Django Reinhardt]


    D6/9                             Em7                 A7    
e|--10-----7-----10-7-10-7---------|-----------------------------------|
H|---------------------------7--8/-|-10--10-10-10--8--7----------------|
G|---------------------------------|---------------------9-------------|
D|---------------------------------|-----------------------------------|
A|---------------------------------|-----------------------------------|
E|---------------------------------|-----------------------------------|


    Em7                A7            D6/9 
e|---------------------------------|----------------------------x--x---|
H|----10-10--10--8--7--------------|-------------10--7----------x--x---|
G|---------------------9---9-------|-7-7h9p7-6-7--------7-------6--6---|
D|---------------------------------|-----------------------7----5--5---|
A|---------------------------------|----------------------------x--x---|
E|---------------------------------|----------------------------5--5---|


    D6/9                             Em7                 A7    
e|--10-----7-----10-7-10-7---------|-----------------------------------|
H|---------------------------7--8/-|-10--10-10-10--8--7----------------|
G|---------------------------------|---------------------9-------------|
D|---------------------------------|-----------------------------------|
A|---------------------------------|-----------------------------------|
E|---------------------------------|-----------------------------------|


    Em7                A7            D6/9 
e|---------------------------------|-----------------------------------------|
H|----10-10--10--8--7--------------|-------------10--7-----------------------|
G|---------------------9---9-------|-7-7h9p7-6-7--------7--------------------|
D|---------------------------------|-----------------------7--h9p7-6-7-b8--8-|
A|---------------------------------|-----------------------------------------|
E|---------------------------------|-----------------------------------------|


    D7                               G6/9
e|---------------------------------|------------3--3-------------------|
H|---------------------------------|------------3--3-------------------|
G|---------------------------------|------------2--2-------------------|
D|--7--------5-5h7p5-4-5-5h7p5-4-5-|-5----------2--2-------------------|
A|---------------------------------|-----------------------------------|
E|---------------------------------|-----------------------------------|


    E7
e|--3-2-1-0-----------------------------------------|
H|----------3-2-1-0---------------------------------|
G|------------------3-2-1-0-------------------------|
D|--------------------------3-2-1-0-----------------|
A|----------------------------------3-2-1-0---------|
E|------------------------------------------3-2-1-0-|


    A7         
e|--------------------------------------5-----------|
H|--------------------------------5-4-5-------------|
G|--------------------------6-5-6-------------------|
D|--------------------7-6-7-------------------------|
A|--------4-3-4-7-6-7-------------------------------|
E|--5-4-5-------------------------------------------|


    D6/9                             Em7                 A7    
e|--10-----7-----10-7-10-7---------|-----------------------------------|
H|---------------------------7--8/-|-10------------8--7-----------7-8/-|
G|---------------------------------|---------------------9-------------|
D|---------------------------------|-----------------------------------|
A|---------------------------------|-----------------------------------|
E|---------------------------------|-----------------------------------|


    Em7          A7         A6-9/C# (grepet flyttes, se video)  
e|--------------------------5-4-5-6-7-8-9-10---------------------|
H|--10-----8--7------------------------------------5-------------|
G|---------------9---------------------------------7-------------|
D|-------------------------------------------------7-------------|
A|-------------------------------------------------5-------------|
E|---------------------------------------------------------------|
×

Se video, tabs, grep og alt annet til Coquette, melodi på videosiden [medlem]

Artikkel

Historien om Django Reinhardt

Navnet Django Reinhardt klinger bra i de fleste gitaristers ører. Det oser musikalitet og teknisk virtuositet av navnet. Vi skal i denne artikkelen se på historien hans, fra den trange oppveksten i sigøynermiljøet til berømmelsen på jazzklubbene i Paris.

 

Bakgrunn

Django Reinhardt ble født i Belgia i 1910. Han vokste opp i fransk sigøyner-familie der faren var musiker og moren var danser. De slo seg til slutt ned i utkanten av Paris, men Django fikk ingen formell skolegang og var analfabet. Men gitarspillingen var hans talent og var det som skulle bringe han opp og fram i livet.

I 1928 - 18 år gammel - tok campingvogna han bodde i fyr. Et stearinlys falt ned i noe papir og flammene spredte seg raskt. Både Django Reinhardt og hans kone kom seg ut, men Django fikk store brannskader på høyre bein og venstre arm. Han mistet to av sine fingre på den skadede hånden. På grunn av dette utviklet Django sin helt spesielle 2-finger teknikk i venstre hånd. Det tok han nesten to år før han var på høyden igjen teknisk.

Tidlig kom Django Reinhardt i kontakt med fiolinisten Stephane Grappeli. Også han hadde bakgrunn som gatemusiker og han og Django fant raskt tonen. Etterhvert stiftet de den kjente jazzkvintetten Hot Club of France.

2. verdenskrig

Django Reinhardt var i England når 2.verdenskrig brøt ut. Han bestemte seg for å reise tilbake til Frankrike, mens hans medmusikere ble igjen. Det neste året tok nazistene kontroll over Frankrike noe som satte Django i en vanskelig posisjon. Sigøynere var blant dem nazistene så på som uønsket og tusener på tusener forsvant i konsentrasjonsleire under krigen. Men Django Reinhardt fortsatte å spille fritt på klubber i Paris og underlig nok fikk han fortsette med det mesteparten av krigen. En av hans mest kjente komposisjoner Nuages - skyer på norsk - utrykker hans tristhet over okkupasjonen.

De siste årene

Etter krigen ble Reinhardt interesert i elektrisk gitar og utforsket flere stiler innenfor jazzen. Han spilte sammen med jazzlegender som Duke Ellington og Dizzie Gillespie og spilte inn noen album. Mye av tiden tilbragte han i Sør-Frankrike. 16.mai 1953 døde Django av et hardt slag.

Django Reinhardt regnes som en av tidenes beste gitarister - uansett stilart. Han var en av de første viktige gitarsolistene innenfor jazzen. Ved å blande jazz og sigøynermusikk skapte han en ny og unik musikkstil som fremdeles idag er populær. Han regnes som en av opphavsmennene til jazzstilene Gypsyjazz og String swing.


 
 

Dagens YouTube-video

Django Reinhardt: Three-Fingered Lightning

En fin, kort dokumentar om Django Reinhardts oppvekst og musikerliv.


Neste dag