JAM!

Rolling in the Deep

- Dette er backingtracket til Adele sin låt Rolling in the deep. Tonearten er C.





SKALA

TABS

RELATERT

C moll pentaton
8.pos.

1.

2.

3.

4.

5.

6.

7.

8.

9.

10.

11.

12.

  • E
  • A
  • D
  • G
  • H
  • E

C moll pentaton
0.pos.

1.

2.

3.

4.

5.

6.

7.

8.

9.

10.

11.

12.

  • E
  • A
  • D
  • G
  • H
  • E

C moll pentaton
3.pos.

1.

2.

3.

4.

5.

6.

7.

8.

9.

10.

11.

12.

  • E
  • A
  • D
  • G
  • H
  • E

C moll pentaton
5.pos.

1.

2.

3.

4.

5.

6.

7.

8.

9.

10.

11.

12.

  • E
  • A
  • D
  • G
  • H
  • E

C moll pentaton
8.pos.

1.

2.

3.

4.

5.

6.

7.

8.

9.

10.

11.

12.

  • E
  • A
  • D
  • G
  • H
  • E

C moll pentaton
10.pos.

9.

10.

11.

12.

13.

14.

15.

16.

17.

18.

19.

20.

  • E
  • A
  • D
  • G
  • H
  • E

C moll pentaton
12.pos.

9.

10.

11.

12.

13.

14.

15.

16.

17.

18.

19.

20.

  • E
  • A
  • D
  • G
  • H
  • E

C moll pentaton
15.pos.

9.

10.

11.

12.

13.

14.

15.

16.

17.

18.

19.

20.

  • E
  • A
  • D
  • G
  • H
  • E

C moll pentaton
17.pos.

9.

10.

11.

12.

13.

14.

15.

16.

17.

18.

19.

20.

  • E
  • A
  • D
  • G
  • H
  • E

Skala

C moll pentaton

Grunntone

C

Skalatrinn

1 1/2 + 1 + 1 + 1 1/2

Skalatoner

C - Eb - F - G - Hb

Om
Moll pentaton
skala

Pentatonisk mollskala består av 5 toner. Dette er nok ofte den første skalaen man lærer på gitar siden denne er lett å "se for seg" på gripebrettet. Den har fått navnet moll fordi det er 3 bånd fra første til andre tone i skalaen. I likhet med dur pentaton skala har denne sitt opphav i tradisjonell musikk og folkemusikk.

Anvendelse

Denne skalaen har mange anvendelser. Den er ofte den første skalaen man lærer for å spille solo over en blues. Vil man for eksempel spille solo over leksjonen Blueskomp i A, passer A-moll pentatonisk skala bra. Skalaen passer også til mye innen metal, rock, pop og jazz.

×

Rolling in the Deep


VERS:
    C5                                    G5
e|----------------------------------|---------------------------------|
H|----------------------------------|---------------------------------|
G|*---------------------------------|---------------------------------| 
D|*---------------------------------|---------------------------------|
A|--10--10--10--10--10--10--10--10--|-10---5---5---5---5---5---5---5--|
E|---8---8---8---8---8---8---8---8--|--8---3---3---3---3---3---3---3--|


        Hb5                               G5              Hb5
e|----------------------------------|---------------------------------|
H|----------------------------------|---------------------------------|
G|----------------------------------|--------------------------------*| 
D|----------------------------------|--------------------------------*|
A|---5---8---8---8---8---8---8---8--|--8---5---5---5---5---8---8---8--|
E|---3---6---6---6---6---6---6---6--|--6---3---3---3---3---6---6---6--|



PRE-REFRENG:
     Ab5                               Hb5
e|----------------------------------|---------------------------------|
H|----------------------------------|---------------------------------|
G|----------------------------------|---------------------------------| 
D|----------------------------------|---------------------------------|
A|---6---6---6---6---6---6---6---6--|--8---8---8---8---8---8---8---8--|
E|---4---4---4---4---4---4---4---4--|--6---6---6---6---6---6---6---6--|


     G5                                Ab5
e|----------------------------------|---------------------------------|
H|----------------------------------|---------------------------------|
G|----------------------------------|---------------------------------| 
D|----------------------------------|---------------------------------|
A|---5---5---5---5---5---5---5---5--|--6---6---6---6---6---6---6---6--|
E|---3---3---3---3---3---3---3---3--|--4---4---4---4---4---4---4---4--|


     Ab                                Hb5
e|----------------------------------|---------------------------------|
H|----------------------------------|---------------------------------|
G|----------------------------------|---------------------------------| 
D|----------------------------------|---------------------------------|
A|---6---6---6---6---6---6---6---6--|--8---8---8---8---8---8---8---8--|
E|---4---4---4---4---4---4---4---4--|--6---6---6---6---6---6---6---6--|


     G5                                G5
e|----------------------------------|---------------------------------|
H|----------------------------------|---------------------------------|
G|----------------------------------|---------------------------------| 
D|----------------------------------|---------------------------------|
A|---5---5---5---5---5---5---5---5--|--5---5---5---5---5---5---5---5--|
E|---3---3---3---3---3---3---3---3--|--3---3---3---3---3---3---3---3--|



REFRENG: 
     C5                                Hb5
e|----------------------------------|---------------------------------|
H|----------------------------------|---------------------------------|
G|*---------------------------------|---------------------------------| 
D|*---------------------------------|---------------------------------|
A|--10--10--10--10--10--10--10--10--|--8---8---8---8---8---8---8---8--|
E|---8---8---8---8---8---8---8---8--|--6---6---6---6---6---6---6---6--|


     Ab5                                               Hb5
e|----------------------------------|---------------------------------|
H|----------------------------------|---------------------------------|
G|----------------------------------|--------------------------------*| 
D|----------------------------------|--------------------------------*|
A|---6---6---6---6---6---6---6---6--|--6---6---6---6---8---8---8---8--|
E|---4---4---4---4---4---4---4---4--|--4---4---4---4---6---6---6---6--|



REFRENG med «Twist»
    Ab5                                Hb5
e|----------------------------------|---------------------------------|
H|----------------------------------|---------------------------------|
G|----------------------------------|---------------------------------| 
D|----------------------------------|---------------------------------|
A|---6---6---6---6---6---6---6---6--|--8---8---8---8---8---8---8---8--|
E|---4---4---4---4---4---4---4---4--|--6---6---6---6---6---6---6---6--|


    C5                                 Hb5
e|----------------------------------|---------------------------------|
H|----------------------------------|---------------------------------|
G|----------------------------------|---------------------------------| 
D|----------------------------------|---------------------------------|
A|--10--10--10--10--10--10--10--10--|--8---8---8---8---8---8---8---8--|
E|---8---8---8---8---8---8---8---8--|--6---6---6---6---6---6---6---6--|


     Ab5                               Ab5
e|----------------------------------|---------------------------------|
H|----------------------------------|---------------------------------|
G|----------------------------------|---------------------------------| 
D|----------------------------------|---------------------------------|
A|---6---6---6---6---6---6---6---6--|--6---6---6---6---6---6---6---6--|
E|---4---4---4---4---4---4---4---4--|--4---4---4---4---4---4---4---4--|


     Hb5                               Hb5
e|----------------------------------|---------------------------------|
H|----------------------------------|---------------------------------|
G|----------------------------------|---------------------------------| 
D|----------------------------------|---------------------------------|
A|---8---8---8---8---8---8---8---8--|--8---8---8---8---8---8---8---8--|
E|---6---6---6---6---6---6---6---6--|--6---6---6---6---6---6---6---6--|




INTRO: C5

VERS 1:
C5               G5
There's a fire starting in my heart,
Hb5                                G5                 Hb5
Reaching a fever pitch and it's bringing me out the dark
C5              G5             
Finally, I can see you crystal clear.
Hb5                           G5                 Hb5  
Go ahead and sell me out and I'll lay your ship bare.

C5                     G5  
See how I leave, with every piece of you
Hb5                       G5                  Hb5
Don't underestimate the things that I will do.
C5                G5  
There's a fire starting in my heart,
Hb5                                G5                   Hb5
Reaching a fever pitch and it's bringing me out the dark


PRE-REFRENG:
Ab5              Hb5                  G5   
    The scars of your love, remind me of us.
              Ab5                             
They keep me thinking that we almost had it all
             Hb5                       G5      
The scars of your love, they leave me breathless
             G5   
I can't help feeling...


REFRENG:
                     C5                   Hb5
We could have had it all... (I wish you, never had met me)...
               Ab5                                           
Rolling in the Deep (Tears are gonna fall, rolling in the deep)
      Hb5                               C5           Hb5
Your had my heart... (I wish you)... Inside of your hand (Never had met me)
           Ab5                                                                Hb5
And you played it... (Tears are gonna fall)... To the beat (Rolling in the deep)


VERS 2:
C5               G5
Baby I have no story to be told,
Hb5                                G5                  Hb5
But I've heard one of you and I'm gonna make your head burn.
C5                   G5
Think of me in the depths of your despair.
Hb5                          G5                  Hb5
Making a home down there, as mine sure won't be shared.


PRE-REFRENG:
Ab5              Hb5                     G5   
    The scars of your love, remind me of us.
               Ab5                              
They keep me thinking that we almost had it all
             Hb5                        G5      
The scars of your love, they leave me breathless
              
I can't help feeling...


REFRENG:
                     C5                   Hb5
We could have had it all... (I wish you, never had met me)...
                Ab5                                           
Rolling in the Deep (Tears are gonna fall, rolling in the deep)
      Hb5                               C5           H5b
Your had my heart... (I wish you)... Inside of your hand (Never had met me)
           Ab5                                                                 Hb5
And you played it... (Tears are gonna fall)... To the beat (Rolling in the deep)
                      Ab5      Hb5
We could have had it all 
                 C5       Hb5
Rolling in the Deep 
                   Ab5                                    
Your had my heart Inside of your hand 
         Hb5 
And you played it To the beat 


VERS 3:
Ingen gitar
Throw yourself through ever open door (Whoa)

Count your blessings to find what look for (Whoa-uh)
C5
Turn my sorrow into treasured gold (Whoa)
C5
And pay me back in kind- You reap just what you sow.



PRE-REFRENG:
C5             Hb5                       Ab5 
(I wish you...)    We could have had it all (Tears are gonna fall... Rolling in the deep) 
    Hb5               C5                       Hb5
We could have had it all yeah ( I wish you... never had met me)
   Ab5
It all. (Tears are gonna fall)
                                    Hb5
It all, It all (Rolling in the deep)



REFRENG:
                     C5                   Hb5
We could have had it all... (I wish you, never had met me)...
                Ab5
Rolling in the Deep (Tears are gonna fall, rolling in the deep)
      Hb5                               C5           Hb5 
Your had my heart... (I wish you)... Inside of your hand (Never had met me)
           Ab5                                                                 Hb5
And you played it... (Tears are gonna fall)... To the beat (Rolling in the deep) 
                    C5                                  Hb5
We could have had it all... (I wish you, never had met me)...
                Ab5   
Rolling in the Deep (Tears are gonna fall, rolling in the deep)
      Hb5                               C5           Hb5
Your had my heart... (I wish you)... Inside of your hand (Never had met me)
Ab5           
But you played it. You played it. You played it.
      Hb5             C5
You played it to the beat.



Rolling in the Deep


VERS:
    C5                                    G5
e|----------------------------------|---------------------------------|
H|----------------------------------|---------------------------------|
G|*---------------------------------|---------------------------------| 
D|*---------------------------------|---------------------------------|
A|--10--10--10--10--10--10--10--10--|-10---5---5---5---5---5---5---5--|
E|---8---8---8---8---8---8---8---8--|--8---3---3---3---3---3---3---3--|


        Hb5                               G5              Hb5
e|----------------------------------|---------------------------------|
H|----------------------------------|---------------------------------|
G|----------------------------------|--------------------------------*| 
D|----------------------------------|--------------------------------*|
A|---5---8---8---8---8---8---8---8--|--8---5---5---5---5---8---8---8--|
E|---3---6---6---6---6---6---6---6--|--6---3---3---3---3---6---6---6--|



PRE-REFRENG:
     Ab5                               Hb5
e|----------------------------------|---------------------------------|
H|----------------------------------|---------------------------------|
G|----------------------------------|---------------------------------| 
D|----------------------------------|---------------------------------|
A|---6---6---6---6---6---6---6---6--|--8---8---8---8---8---8---8---8--|
E|---4---4---4---4---4---4---4---4--|--6---6---6---6---6---6---6---6--|


     G5                                Ab5
e|----------------------------------|---------------------------------|
H|----------------------------------|---------------------------------|
G|----------------------------------|---------------------------------| 
D|----------------------------------|---------------------------------|
A|---5---5---5---5---5---5---5---5--|--6---6---6---6---6---6---6---6--|
E|---3---3---3---3---3---3---3---3--|--4---4---4---4---4---4---4---4--|


     Ab                                Hb5
e|----------------------------------|---------------------------------|
H|----------------------------------|---------------------------------|
G|----------------------------------|---------------------------------| 
D|----------------------------------|---------------------------------|
A|---6---6---6---6---6---6---6---6--|--8---8---8---8---8---8---8---8--|
E|---4---4---4---4---4---4---4---4--|--6---6---6---6---6---6---6---6--|


     G5                                G5
e|----------------------------------|---------------------------------|
H|----------------------------------|---------------------------------|
G|----------------------------------|---------------------------------| 
D|----------------------------------|---------------------------------|
A|---5---5---5---5---5---5---5---5--|--5---5---5---5---5---5---5---5--|
E|---3---3---3---3---3---3---3---3--|--3---3---3---3---3---3---3---3--|



REFRENG: 
     C5                                Hb5
e|----------------------------------|---------------------------------|
H|----------------------------------|---------------------------------|
G|*---------------------------------|---------------------------------| 
D|*---------------------------------|---------------------------------|
A|--10--10--10--10--10--10--10--10--|--8---8---8---8---8---8---8---8--|
E|---8---8---8---8---8---8---8---8--|--6---6---6---6---6---6---6---6--|


     Ab5                                               Hb5
e|----------------------------------|---------------------------------|
H|----------------------------------|---------------------------------|
G|----------------------------------|--------------------------------*| 
D|----------------------------------|--------------------------------*|
A|---6---6---6---6---6---6---6---6--|--6---6---6---6---8---8---8---8--|
E|---4---4---4---4---4---4---4---4--|--4---4---4---4---6---6---6---6--|



REFRENG med «Twist»
    Ab5                                Hb5
e|----------------------------------|---------------------------------|
H|----------------------------------|---------------------------------|
G|----------------------------------|---------------------------------| 
D|----------------------------------|---------------------------------|
A|---6---6---6---6---6---6---6---6--|--8---8---8---8---8---8---8---8--|
E|---4---4---4---4---4---4---4---4--|--6---6---6---6---6---6---6---6--|


    C5                                 Hb5
e|----------------------------------|---------------------------------|
H|----------------------------------|---------------------------------|
G|----------------------------------|---------------------------------| 
D|----------------------------------|---------------------------------|
A|--10--10--10--10--10--10--10--10--|--8---8---8---8---8---8---8---8--|
E|---8---8---8---8---8---8---8---8--|--6---6---6---6---6---6---6---6--|


     Ab5                               Ab5
e|----------------------------------|---------------------------------|
H|----------------------------------|---------------------------------|
G|----------------------------------|---------------------------------| 
D|----------------------------------|---------------------------------|
A|---6---6---6---6---6---6---6---6--|--6---6---6---6---6---6---6---6--|
E|---4---4---4---4---4---4---4---4--|--4---4---4---4---4---4---4---4--|


     Hb5                               Hb5
e|----------------------------------|---------------------------------|
H|----------------------------------|---------------------------------|
G|----------------------------------|---------------------------------| 
D|----------------------------------|---------------------------------|
A|---8---8---8---8---8---8---8---8--|--8---8---8---8---8---8---8---8--|
E|---6---6---6---6---6---6---6---6--|--6---6---6---6---6---6---6---6--|




INTRO: C5

VERS 1:
C5               G5
There's a fire starting in my heart,
Hb5                                G5                 Hb5
Reaching a fever pitch and it's bringing me out the dark
C5              G5             
Finally, I can see you crystal clear.
Hb5                           G5                 Hb5  
Go ahead and sell me out and I'll lay your ship bare.

C5                     G5  
See how I leave, with every piece of you
Hb5                       G5                  Hb5
Don't underestimate the things that I will do.
C5                G5  
There's a fire starting in my heart,
Hb5                                G5                   Hb5
Reaching a fever pitch and it's bringing me out the dark


PRE-REFRENG:
Ab5              Hb5                  G5   
    The scars of your love, remind me of us.
              Ab5                             
They keep me thinking that we almost had it all
             Hb5                       G5      
The scars of your love, they leave me breathless
             G5   
I can't help feeling...


REFRENG:
                     C5                   Hb5
We could have had it all... (I wish you, never had met me)...
               Ab5                                           
Rolling in the Deep (Tears are gonna fall, rolling in the deep)
      Hb5                               C5           Hb5
Your had my heart... (I wish you)... Inside of your hand (Never had met me)
           Ab5                                                                Hb5
And you played it... (Tears are gonna fall)... To the beat (Rolling in the deep)


VERS 2:
C5               G5
Baby I have no story to be told,
Hb5                                G5                  Hb5
But I've heard one of you and I'm gonna make your head burn.
C5                   G5
Think of me in the depths of your despair.
Hb5                          G5                  Hb5
Making a home down there, as mine sure won't be shared.


PRE-REFRENG:
Ab5              Hb5                     G5   
    The scars of your love, remind me of us.
               Ab5                              
They keep me thinking that we almost had it all
             Hb5                        G5      
The scars of your love, they leave me breathless
              
I can't help feeling...


REFRENG:
                     C5                   Hb5
We could have had it all... (I wish you, never had met me)...
                Ab5                                           
Rolling in the Deep (Tears are gonna fall, rolling in the deep)
      Hb5                               C5           H5b
Your had my heart... (I wish you)... Inside of your hand (Never had met me)
           Ab5                                                                 Hb5
And you played it... (Tears are gonna fall)... To the beat (Rolling in the deep)
                      Ab5      Hb5
We could have had it all 
                 C5       Hb5
Rolling in the Deep 
                   Ab5                                    
Your had my heart Inside of your hand 
         Hb5 
And you played it To the beat 


VERS 3:
Ingen gitar
Throw yourself through ever open door (Whoa)

Count your blessings to find what look for (Whoa-uh)
C5
Turn my sorrow into treasured gold (Whoa)
C5
And pay me back in kind- You reap just what you sow.



PRE-REFRENG:
C5             Hb5                       Ab5 
(I wish you...)    We could have had it all (Tears are gonna fall... Rolling in the deep) 
    Hb5               C5                       Hb5
We could have had it all yeah ( I wish you... never had met me)
   Ab5
It all. (Tears are gonna fall)
                                    Hb5
It all, It all (Rolling in the deep)



REFRENG:
                     C5                   Hb5
We could have had it all... (I wish you, never had met me)...
                Ab5
Rolling in the Deep (Tears are gonna fall, rolling in the deep)
      Hb5                               C5           Hb5 
Your had my heart... (I wish you)... Inside of your hand (Never had met me)
           Ab5                                                                 Hb5
And you played it... (Tears are gonna fall)... To the beat (Rolling in the deep) 
                    C5                                  Hb5
We could have had it all... (I wish you, never had met me)...
                Ab5   
Rolling in the Deep (Tears are gonna fall, rolling in the deep)
      Hb5                               C5           Hb5
Your had my heart... (I wish you)... Inside of your hand (Never had met me)
Ab5           
But you played it. You played it. You played it.
      Hb5             C5
You played it to the beat.



×