JAM!

Happy - Pharrell Williams

- Dette er backingtracket til Pharrell Williams sin låt Happy. Tonearten er F.





SKALA

TABS

RELATERT

F moll pentaton
1.pos.

1.

2.

3.

4.

5.

6.

7.

8.

9.

10.

11.

12.

  • E
  • A
  • D
  • G
  • H
  • E

F moll pentaton
1.pos.

1.

2.

3.

4.

5.

6.

7.

8.

9.

10.

11.

12.

  • E
  • A
  • D
  • G
  • H
  • E

F moll pentaton
3.pos.

1.

2.

3.

4.

5.

6.

7.

8.

9.

10.

11.

12.

  • E
  • A
  • D
  • G
  • H
  • E

F moll pentaton
5.pos.

1.

2.

3.

4.

5.

6.

7.

8.

9.

10.

11.

12.

  • E
  • A
  • D
  • G
  • H
  • E

F moll pentaton
8.pos.

1.

2.

3.

4.

5.

6.

7.

8.

9.

10.

11.

12.

  • E
  • A
  • D
  • G
  • H
  • E

F moll pentaton
10.pos.

9.

10.

11.

12.

13.

14.

15.

16.

17.

18.

19.

20.

  • E
  • A
  • D
  • G
  • H
  • E

F moll pentaton
13.pos.

9.

10.

11.

12.

13.

14.

15.

16.

17.

18.

19.

20.

  • E
  • A
  • D
  • G
  • H
  • E

F moll pentaton
15.pos.

9.

10.

11.

12.

13.

14.

15.

16.

17.

18.

19.

20.

  • E
  • A
  • D
  • G
  • H
  • E

Skala

F moll pentaton

Grunntone

F

Skalatrinn

1 1/2 + 1 + 1 + 1 1/2

Skalatoner

F - Ab - Hb - C - Eb

Om
Moll pentaton
skala

Pentatonisk mollskala består av 5 toner. Dette er nok ofte den første skalaen man lærer på gitar siden denne er lett å "se for seg" på gripebrettet. Den har fått navnet moll fordi det er 3 bånd fra første til andre tone i skalaen. I likhet med dur pentaton skala har denne sitt opphav i tradisjonell musikk og folkemusikk.

Anvendelse

Denne skalaen har mange anvendelser. Den er ofte den første skalaen man lærer for å spille solo over en blues. Vil man for eksempel spille solo over leksjonen Blueskomp i A, passer A-moll pentatonisk skala bra. Skalaen passer også til mye innen metal, rock, pop og jazz.

×

Happy - Pharrell Williams


v = Nedoverslag
^ = Oppoverslag 


INTRO:
     F7    F7    F7    F7    
     v     v     v     v       
e|---------------------------|
H|---6-----6-----6-----6-----|
G|---8-----8-----8-----8-----| 
D|---7-----7-----7-----7-----|
A|---8-----8-----8-----8-----|
E|---------------------------|



VERS:
     F7
     v
e|---------------------------|---------------------------|
H|---6-----------------------|---------------------------|
G|---8-----------------------|---------------------------|
D|---7-----------------------|---------------------------|
A|---8-----------------------|---------------------------|
E|---------------------------|---------------------------|
                  It might seem crazy what I'm about to

      F7    Ab    Hb      C              Hb      
      v     v     v       ^              ^        
e|---------------------------|---------------------------|
H|----6-----4-----6-------8--|-----------6---------------|
G|*---8-----5-----7-------9--|-----------7--------------*| Spilles 4 ganger
D|*---7-----6-----8-------10-|-----------8--------------*| 
A|----8----------------------|---------------------------|
E|---------------------------|---------------------------|
     say........                            



REFRENG:
    Dbmaj7               Cm7                  
    v  ^  v  ^  v        ^         ^  v  ^  v      
e|--4--4--4--4--4--------3---|-----3--3--3--3------------|
H|--6--6--6--6--6--------4---|-----4--4--4--4------------|
G|--5--5--5--5--5--------3---|-----3--3--3--3------------| 
D|--6--6--6--6--6--------5---|-----5--5--5--5------------|
A|--4--4--4--4--4--------3---|-----3--3--3--3------------|
E|---------------------------|---------------------------|
    1     2     3     4         1     2     3     4     

  
    Cm7                  F
    v  ^  v  ^  v        ^         ^  v  ^  v
e|--3--3--3--3--3--------1---|-----1--1--1--1--------|
H|--4--4--4--4--4--------1---|-----1--1--1--1--------|
G|--3--3--3--3--3--------2---|-----2--2--2--2--------| 
D|--5--5--5--5--5--------3---|-----3--3--3--3--------|
A|--3--3--3--3--3--------3---|-----3--3--3--3--------|
E|-----------------------1---|-----1--1--1--1--------|
    1     2     3     4          1     2     3     4   



VERS 1:
F7                                        F7 - Ab - Hb - C  - Hb  
 It might seem crazy what I'm about to say
F7                                       F7 - Ab - Hb - C  - Hb  
 Sunshine she's here, you can take a break
F7                                         F7 - Ab - Hb - C  - Hb  
 I'm a hot air balloon that could go to space
F7                                             F7 - Ab - Hb - C  - Hb  
With the air, like I don't care, baby, by the way



REFRENG:
            Dbmaj7                
Because I'm happy
           Cm7                Cm7            F
Clap along if you feel like a room without a roof
            Dbmaj7      
Because I'm happy
           Cm7              Cm7              F
Clap along if you feel like happiness is the truth
            Dbmaj7      
Because I'm happy
           Cm7              Cm7             F
Clap along if you know what happiness is to you
            Dbmaj7      
Because I'm happy
           Cm7               Cm7                  F
Clap along if you feel like that's what you wanna do



VERS 2:
Here come bad news talking this and that, yeah,
Well, give me all you got, and don't hold it back, yeah,
Well, I should probably warn you I'll be just fine, yeah,
No offense to you, don't waste your time
Here's why


-REFRENG-


Bro (ingen gitar):

(Happy)
Bring me down
Can't nothing
Bring me down
My level's too high
Bring me down
Can't nothing
Bring me down
I said (let me tell you now)
Bring me down
Can't nothing
Bring me down
My level's too high
Bring me down
Can't nothing
Bring me down
I said

-REFRENG- x2:


Bro (ingen gitar):

(Happy)
Bring me down
Can't nothing
Bring me down
My level's too high
Bring me down
Can't nothing
Bring me down
I said 


-REFRENG-

Happy - Pharrell Williams


v = Nedoverslag
^ = Oppoverslag 


INTRO:
     F7    F7    F7    F7    
     v     v     v     v       
e|---------------------------|
H|---6-----6-----6-----6-----|
G|---8-----8-----8-----8-----| 
D|---7-----7-----7-----7-----|
A|---8-----8-----8-----8-----|
E|---------------------------|



VERS:
     F7
     v
e|---------------------------|---------------------------|
H|---6-----------------------|---------------------------|
G|---8-----------------------|---------------------------|
D|---7-----------------------|---------------------------|
A|---8-----------------------|---------------------------|
E|---------------------------|---------------------------|
                  It might seem crazy what I'm about to

      F7    Ab    Hb      C              Hb      
      v     v     v       ^              ^        
e|---------------------------|---------------------------|
H|----6-----4-----6-------8--|-----------6---------------|
G|*---8-----5-----7-------9--|-----------7--------------*| Spilles 4 ganger
D|*---7-----6-----8-------10-|-----------8--------------*| 
A|----8----------------------|---------------------------|
E|---------------------------|---------------------------|
     say........                            



REFRENG:
    Dbmaj7               Cm7                  
    v  ^  v  ^  v        ^         ^  v  ^  v      
e|--4--4--4--4--4--------3---|-----3--3--3--3------------|
H|--6--6--6--6--6--------4---|-----4--4--4--4------------|
G|--5--5--5--5--5--------3---|-----3--3--3--3------------| 
D|--6--6--6--6--6--------5---|-----5--5--5--5------------|
A|--4--4--4--4--4--------3---|-----3--3--3--3------------|
E|---------------------------|---------------------------|
    1     2     3     4         1     2     3     4     

  
    Cm7                  F
    v  ^  v  ^  v        ^         ^  v  ^  v
e|--3--3--3--3--3--------1---|-----1--1--1--1--------|
H|--4--4--4--4--4--------1---|-----1--1--1--1--------|
G|--3--3--3--3--3--------2---|-----2--2--2--2--------| 
D|--5--5--5--5--5--------3---|-----3--3--3--3--------|
A|--3--3--3--3--3--------3---|-----3--3--3--3--------|
E|-----------------------1---|-----1--1--1--1--------|
    1     2     3     4          1     2     3     4   



VERS 1:
F7                                        F7 - Ab - Hb - C  - Hb  
 It might seem crazy what I'm about to say
F7                                       F7 - Ab - Hb - C  - Hb  
 Sunshine she's here, you can take a break
F7                                         F7 - Ab - Hb - C  - Hb  
 I'm a hot air balloon that could go to space
F7                                             F7 - Ab - Hb - C  - Hb  
With the air, like I don't care, baby, by the way



REFRENG:
            Dbmaj7                
Because I'm happy
           Cm7                Cm7            F
Clap along if you feel like a room without a roof
            Dbmaj7      
Because I'm happy
           Cm7              Cm7              F
Clap along if you feel like happiness is the truth
            Dbmaj7      
Because I'm happy
           Cm7              Cm7             F
Clap along if you know what happiness is to you
            Dbmaj7      
Because I'm happy
           Cm7               Cm7                  F
Clap along if you feel like that's what you wanna do



VERS 2:
Here come bad news talking this and that, yeah,
Well, give me all you got, and don't hold it back, yeah,
Well, I should probably warn you I'll be just fine, yeah,
No offense to you, don't waste your time
Here's why


-REFRENG-


Bro (ingen gitar):

(Happy)
Bring me down
Can't nothing
Bring me down
My level's too high
Bring me down
Can't nothing
Bring me down
I said (let me tell you now)
Bring me down
Can't nothing
Bring me down
My level's too high
Bring me down
Can't nothing
Bring me down
I said

-REFRENG- x2:


Bro (ingen gitar):

(Happy)
Bring me down
Can't nothing
Bring me down
My level's too high
Bring me down
Can't nothing
Bring me down
I said 


-REFRENG-
×