JAM!

Treasure - Bruno Mars

- Dette er backingtracket til Bruno Mars sin låt Treasure. Tonearten er Cm.





SKALA

TABS

RELATERT

C moll pentaton
8.pos.

1.

2.

3.

4.

5.

6.

7.

8.

9.

10.

11.

12.

  • E
  • A
  • D
  • G
  • H
  • E

C moll pentaton
0.pos.

1.

2.

3.

4.

5.

6.

7.

8.

9.

10.

11.

12.

  • E
  • A
  • D
  • G
  • H
  • E

C moll pentaton
3.pos.

1.

2.

3.

4.

5.

6.

7.

8.

9.

10.

11.

12.

  • E
  • A
  • D
  • G
  • H
  • E

C moll pentaton
5.pos.

1.

2.

3.

4.

5.

6.

7.

8.

9.

10.

11.

12.

  • E
  • A
  • D
  • G
  • H
  • E

C moll pentaton
8.pos.

1.

2.

3.

4.

5.

6.

7.

8.

9.

10.

11.

12.

  • E
  • A
  • D
  • G
  • H
  • E

C moll pentaton
10.pos.

9.

10.

11.

12.

13.

14.

15.

16.

17.

18.

19.

20.

  • E
  • A
  • D
  • G
  • H
  • E

C moll pentaton
12.pos.

9.

10.

11.

12.

13.

14.

15.

16.

17.

18.

19.

20.

  • E
  • A
  • D
  • G
  • H
  • E

C moll pentaton
15.pos.

9.

10.

11.

12.

13.

14.

15.

16.

17.

18.

19.

20.

  • E
  • A
  • D
  • G
  • H
  • E

C moll pentaton
17.pos.

9.

10.

11.

12.

13.

14.

15.

16.

17.

18.

19.

20.

  • E
  • A
  • D
  • G
  • H
  • E

Skala

C moll pentaton

Grunntone

C

Skalatrinn

1 1/2 + 1 + 1 + 1 1/2

Skalatoner

C - Eb - F - G - Hb

Om
Moll pentaton
skala

Pentatonisk mollskala består av 5 toner. Dette er nok ofte den første skalaen man lærer på gitar siden denne er lett å "se for seg" på gripebrettet. Den har fått navnet moll fordi det er 3 bånd fra første til andre tone i skalaen. I likhet med dur pentaton skala har denne sitt opphav i tradisjonell musikk og folkemusikk.

Anvendelse

Denne skalaen har mange anvendelser. Den er ofte den første skalaen man lærer for å spille solo over en blues. Vil man for eksempel spille solo over leksjonen Blueskomp i A, passer A-moll pentatonisk skala bra. Skalaen passer også til mye innen metal, rock, pop og jazz.

×

C moll
7.pos.

1.

2.

3.

4.

5.

6.

7.

8.

9.

10.

11.

12.

  • E
  • A
  • D
  • G
  • H
  • E

C moll
1.pos.

1.

2.

3.

4.

5.

6.

7.

8.

9.

10.

11.

12.

  • E
  • A
  • D
  • G
  • H
  • E

C moll
3.pos.

1.

2.

3.

4.

5.

6.

7.

8.

9.

10.

11.

12.

  • E
  • A
  • D
  • G
  • H
  • E

C moll
5.pos.

1.

2.

3.

4.

5.

6.

7.

8.

9.

10.

11.

12.

  • E
  • A
  • D
  • G
  • H
  • E

C moll
7.pos.

1.

2.

3.

4.

5.

6.

7.

8.

9.

10.

11.

12.

  • E
  • A
  • D
  • G
  • H
  • E

C moll
9.pos.

9.

10.

11.

12.

13.

14.

15.

16.

17.

18.

19.

20.

  • E
  • A
  • D
  • G
  • H
  • E

C moll
12.pos.

9.

10.

11.

12.

13.

14.

15.

16.

17.

18.

19.

20.

  • E
  • A
  • D
  • G
  • H
  • E

C moll
15.pos.

9.

10.

11.

12.

13.

14.

15.

16.

17.

18.

19.

20.

  • E
  • A
  • D
  • G
  • H
  • E

C moll
16.pos.

9.

10.

11.

12.

13.

14.

15.

16.

17.

18.

19.

20.

  • E
  • A
  • D
  • G
  • H
  • E

Skala

C moll

Grunntone

C

Skalatrinn

1 + 1/2 + 1 + 1 + 1/2 + 1

Skalatoner

C - D - Eb - F - G - Ab - Hb

Om
Moll
skala

Denne skalaen består av 7 toner, og klinger nok velkjent for mange. Til forskjell fra durskalaen har denne skalaen lavt tredje trinn, det vil si at det er 3 bånd fra den første tonen til den tredje tonen. Dette kalles for en moll-ters i musikkteorien.

Anvendelse

Her er det mange muligheter og bruksområdet spenner fra pop og jazz til metal og viser. Har du en sang du vil spille solo over som begynner med A-moll akkorden vil A-mollskala i de aller fleste tilfeller passe meget bra.

×

Treasure - Bruno Mars


INTRO:
                            Abadd9
                            ^    v  v  v  v  v 
e|--------------------------6-|--6--6--6--6--6-------------|
H|--------------------------4-|--4--4--4--4--4-------------|
G|--------------------------5-|--5--5--5--5--5-------------| 
D|--------------------------6-|--6--6--6--6--6-------------|
A|----------------------------|----------------------------|
E|----------------------------|----------------------------|
     1     2     3     4                  


VERS og REFRENG:
     Cm          Cm   Hb   Ab                Ab    Cm    
     v       v ^ v    ^    v             v ^ v     v          
e|----------------------------|----------------------------|
H|---8-------x-x-8----6----4--|----------x-x-4-----8-------|
G|*--8-------x-x-8----7----5--|----------x-x-5-----8-------| 
D|*--10------x-x-10---8----6--|----------x-x-6-----10------|
A|----------------------------|----------------------------|
E|----------------------------|----------------------------|

     Hb          Hb   Hb  Cm                 Cm    Hb
     v       v ^ v    ^   v                  v     v
e|----------------------------|----------------------------|
H|---6-------x-x-6----6---8---|--------------8-----6-------|
G|---7-------x-x-7----7---8---|--------------8-----7------*| Repeter
D|---8-------x-x-8----8---10--|--------------10----8------*|
A|----------------------------|----------------------------|
E|----------------------------|----------------------------|

     

Overgangsdel
     Cm          Cm   Hb   Ab                Ab    Cm    
     v       v ^ v    ^    v             v ^ v     v          
e|----------------------------|----------------------------|
H|---8-------x-x-8----6----4--|----------x-x-4-----8-------|
G|---8-------x-x-8----7----5--|----------x-x-5-----8-------| 
D|---10------x-x-10---8----6--|----------x-x-6-----10------|
A|----------------------------|----------------------------|
E|----------------------------|----------------------------|


     Hb
     v  ^   ^  v    v  ^    ^  v
e|-----------------------------------------|
H|--11-11--11-11---11-11---11-11-----------|
G|---x--x---x--x----x--x----x--x-----------| 
D|---8--8---8--8----8--8----8--8-----------|
A|-----------------------------------------|
E|-----------------------------------------|
     1         2          3         4       
     
     
     v  ^   ^  v    v  ^    ^  v
e|-----------------------------------------|
H|--11-11--11-11---11-11---11-11-----------|
G|---x--x---x--x----x--x----x--x-----------| 
D|---8--8---8--8----8--8----8--8-----------|
A|-----------------------------------------|
E|-----------------------------------------|
     1         2          3         4       



VERS 1:
Cm                        Cm               Hb        Ab       Ab   Cm
Give me all, give me all, give me all your attention baby
  Hb                       Hb        Hb        Cm      Cm   Hb
I got to tell you a little something about yourself
	   Cm                   Cm           Hb   Ab       Ab   Cm
You're wonderful, flawless, ooh you're a sexy lady
        Hb                        Hb       Hb     Cm    Cm   Hb
But you walk around here like you wanna be someone else
Cm       Cm   Hb       Ab                 Ab       Cm
                    I know that you don't know it, but you're 
Hb            Hb        Hb     Cm      Cm   Hb
fine, so fine                      fine, so fine
Cm       Cm   Hb       Ab             Ab       Cm
                    Oh girl I'm gonna show you when you're 
Hb (overgang)
mine, oh mine     mine, oh mine
 
 
 
REFRENG:
Cm       Cm   Hb  Ab         Ab   Cm
Treasure,            that is what you 
Hb     Hb      Hb  Cm    Cm Hb
are      Honey you're my golden 
Cm       Cm     Hb         Ab      Ab   Cm
star      You know you can make my wish come 
Hb     Hb     Hb    Cm     Cm  Hb
true         If you let me treasure 
Cm       Cm   Hb  Ab              Ab   Cm
you                 If you let me treasure 
Hb (overgang)
you


VERS 2:
Pretty girl, pretty girl, pretty girl you should be smiling
A girl like you should never look so blue
You're everything I see in my dreams
I wouldn't say that to you if it wasn't true
I know that you don't know it, but you're fine, so fine
Oh girl I'm gonna show you when you're mine, oh mine


-REFRENG- 


BRO (samme gitariff som under refreng og vers):
You are my treasure, you are my treasure
You are my treasure, yeah, you you you, you are
You are my treasure, you are my treasure
You are my treasure, yeah, you you you, you are


-REFRENG-

Treasure - Bruno Mars


INTRO:
                            Abadd9
                            ^    v  v  v  v  v 
e|--------------------------6-|--6--6--6--6--6-------------|
H|--------------------------4-|--4--4--4--4--4-------------|
G|--------------------------5-|--5--5--5--5--5-------------| 
D|--------------------------6-|--6--6--6--6--6-------------|
A|----------------------------|----------------------------|
E|----------------------------|----------------------------|
     1     2     3     4                  


VERS og REFRENG:
     Cm          Cm   Hb   Ab                Ab    Cm    
     v       v ^ v    ^    v             v ^ v     v          
e|----------------------------|----------------------------|
H|---8-------x-x-8----6----4--|----------x-x-4-----8-------|
G|*--8-------x-x-8----7----5--|----------x-x-5-----8-------| 
D|*--10------x-x-10---8----6--|----------x-x-6-----10------|
A|----------------------------|----------------------------|
E|----------------------------|----------------------------|

     Hb          Hb   Hb  Cm                 Cm    Hb
     v       v ^ v    ^   v                  v     v
e|----------------------------|----------------------------|
H|---6-------x-x-6----6---8---|--------------8-----6-------|
G|---7-------x-x-7----7---8---|--------------8-----7------*| Repeter
D|---8-------x-x-8----8---10--|--------------10----8------*|
A|----------------------------|----------------------------|
E|----------------------------|----------------------------|

     

Overgangsdel
     Cm          Cm   Hb   Ab                Ab    Cm    
     v       v ^ v    ^    v             v ^ v     v          
e|----------------------------|----------------------------|
H|---8-------x-x-8----6----4--|----------x-x-4-----8-------|
G|---8-------x-x-8----7----5--|----------x-x-5-----8-------| 
D|---10------x-x-10---8----6--|----------x-x-6-----10------|
A|----------------------------|----------------------------|
E|----------------------------|----------------------------|


     Hb
     v  ^   ^  v    v  ^    ^  v
e|-----------------------------------------|
H|--11-11--11-11---11-11---11-11-----------|
G|---x--x---x--x----x--x----x--x-----------| 
D|---8--8---8--8----8--8----8--8-----------|
A|-----------------------------------------|
E|-----------------------------------------|
     1         2          3         4       
     
     
     v  ^   ^  v    v  ^    ^  v
e|-----------------------------------------|
H|--11-11--11-11---11-11---11-11-----------|
G|---x--x---x--x----x--x----x--x-----------| 
D|---8--8---8--8----8--8----8--8-----------|
A|-----------------------------------------|
E|-----------------------------------------|
     1         2          3         4       



VERS 1:
Cm                        Cm               Hb        Ab       Ab   Cm
Give me all, give me all, give me all your attention baby
  Hb                       Hb        Hb        Cm      Cm   Hb
I got to tell you a little something about yourself
	   Cm                   Cm           Hb   Ab       Ab   Cm
You're wonderful, flawless, ooh you're a sexy lady
        Hb                        Hb       Hb     Cm    Cm   Hb
But you walk around here like you wanna be someone else
Cm       Cm   Hb       Ab                 Ab       Cm
                    I know that you don't know it, but you're 
Hb            Hb        Hb     Cm      Cm   Hb
fine, so fine                      fine, so fine
Cm       Cm   Hb       Ab             Ab       Cm
                    Oh girl I'm gonna show you when you're 
Hb (overgang)
mine, oh mine     mine, oh mine
 
 
 
REFRENG:
Cm       Cm   Hb  Ab         Ab   Cm
Treasure,            that is what you 
Hb     Hb      Hb  Cm    Cm Hb
are      Honey you're my golden 
Cm       Cm     Hb         Ab      Ab   Cm
star      You know you can make my wish come 
Hb     Hb     Hb    Cm     Cm  Hb
true         If you let me treasure 
Cm       Cm   Hb  Ab              Ab   Cm
you                 If you let me treasure 
Hb (overgang)
you


VERS 2:
Pretty girl, pretty girl, pretty girl you should be smiling
A girl like you should never look so blue
You're everything I see in my dreams
I wouldn't say that to you if it wasn't true
I know that you don't know it, but you're fine, so fine
Oh girl I'm gonna show you when you're mine, oh mine


-REFRENG- 


BRO (samme gitariff som under refreng og vers):
You are my treasure, you are my treasure
You are my treasure, yeah, you you you, you are
You are my treasure, you are my treasure
You are my treasure, yeah, you you you, you are


-REFRENG-
×